ISO-10303-21;
HEADER;
FILE_DESCRIPTION(('CATIA V5R19 STEP'),'2;1');

FILE_NAME ('D1447048_0', '2015-02-23T11:50:40+00:00', ('Weidmueller Interface'), ('Weidmueller'), 'CATIA Version 5 Release 20 SP 5 (IN-10)', 'CATIA V5 STEP AP214', 'none');

FILE_SCHEMA(('AUTOMOTIVE_DESIGN { 1 0 10303 214 1 1 1 1 }'));

ENDSEC;
/* file written by CATIA V5R20 */
DATA;
#5=PRODUCT('ESG-M 8x20','','Markierer ESG 8x20 f\X2\00FC\X0\r Festo/MURR \X2\000A\X0\<Q-CHECKER_SEAL> Q-Checker Version 2.2.1  \X2\000A\X0\CATIA-Version         : Catia V5 R16 SP9 Build Date 03-16-2007.22.00\X2\000A\X0\Model size (in KByte) : 0\X2\000A\X0\Checking date         : 2008-06-16 11:54:13\X2\000A\X0\Checking profile      : ADMIN / Release_CATDrawings_de [CATPart]\X2\000A\X0\Model assessment      : In Ordnung (IO)\X2\000A\X0\Total weight sum      : 0\X2\000A\X0\<CROSS_CHECK_SUM>\X2\000A\X0\  <CHKSUM_DATE> 1868865598 </CHKSUM_DATE>\X2\000A\X0\  <CHKSUM_ENTITIES> -648748013 </CHKSUM_ENTITIES>\X2\000A\X0\  <CHKSUM_PROFILE> 1727906418 </CHKSUM_PROFILE>\X2\000A\X0\  <CHKSUM_DIMENSION> -186917087 </CHKSUM_DIMENSION>\X2\000A\X0\  <CHKSUM_PROJINTERSEC> -896974048 </CHKSUM_PROJINTERSEC>\X2\000A\X0\  <CHKSUM_IDENTCRV> -896974048 </CHKSUM_IDENTCRV>\X2\000A\X0\  <CHKSUM_INFINITY> 138018827 </CHKSUM_INFINITY>\X2\000A\X0\</CROSS_CHECK_SUM>\X2\000A\X0\</Q-CHECKER_SEAL> \X2\000A\X0\ \X2\000A\X0\ \X2\000A\X0\ \X2\000A\X0\',(#2)) ;
#2=PRODUCT_CONTEXT(' ',#1,'mechanical') ;
#1=APPLICATION_CONTEXT('automotive design') ;
#10=PRODUCT_DEFINITION('',' ',#6,#3) ;
#3=PRODUCT_DEFINITION_CONTEXT('part definition',#1,' ') ;
#11=PRODUCT_DEFINITION_SHAPE(' ',' ',#10) ;
#452=MECHANICAL_DESIGN_GEOMETRIC_PRESENTATION_REPRESENTATION(' ',(#30),#17) ;
#20=SHAPE_REPRESENTATION(' ',(#19),#17) ;
#19=AXIS2_PLACEMENT_3D(' ',#18,$,$) ;
#36=AXIS2_PLACEMENT_3D('Plane Axis2P3D',#33,#34,#35) ;
#76=AXIS2_PLACEMENT_3D('Plane Axis2P3D',#73,#74,#75) ;
#107=AXIS2_PLACEMENT_3D('Plane Axis2P3D',#104,#105,#106) ;
#131=AXIS2_PLACEMENT_3D('Plane Axis2P3D',#128,#129,#130) ;
#155=AXIS2_PLACEMENT_3D('Plane Axis2P3D',#152,#153,#154) ;
#172=AXIS2_PLACEMENT_3D('Plane Axis2P3D',#169,#170,#171) ;
#252=AXIS2_PLACEMENT_3D('Plane Axis2P3D',#249,#250,#251) ;
#283=AXIS2_PLACEMENT_3D('Plane Axis2P3D',#280,#281,#282) ;
#307=AXIS2_PLACEMENT_3D('Plane Axis2P3D',#304,#305,#306) ;
#331=AXIS2_PLACEMENT_3D('Plane Axis2P3D',#328,#329,#330) ;
#348=AXIS2_PLACEMENT_3D('Plane Axis2P3D',#345,#346,#347) ;
#386=AXIS2_PLACEMENT_3D('Plane Axis2P3D',#383,#384,#385) ;
#429=AXIS2_PLACEMENT_3D('Plane Axis2P3D',#426,#427,#428) ;
#18=CARTESIAN_POINT(' ',(0.,0.,0.)) ;
#33=CARTESIAN_POINT('Axis2P3D Location',(9.8,4.51263108366,0.)) ;
#38=CARTESIAN_POINT('Line Origine',(18.8,3.09542965381,5.51091059616E-016)) ;
#42=CARTESIAN_POINT('Vertex',(18.8,3.28736891634,4.4408920985E-016)) ;
#44=CARTESIAN_POINT('Vertex',(18.8,2.90349039127,4.4408920985E-016)) ;
#47=CARTESIAN_POINT('Line Origine',(9.8,2.90349039127,0.)) ;
#51=CARTESIAN_POINT('Vertex',(0.8,2.90349039127,-4.4408920985E-016)) ;
#54=CARTESIAN_POINT('Line Origine',(0.8,3.09542965381,-5.51091059616E-016)) ;
#58=CARTESIAN_POINT('Vertex',(0.8,3.28736891634,-4.4408920985E-016)) ;
#61=CARTESIAN_POINT('Line Origine',(9.8,3.28736891634,0.)) ;
#73=CARTESIAN_POINT('Axis2P3D Location',(9.8,3.28736891634,4.4408920985E-016)) ;
#78=CARTESIAN_POINT('Line Origine',(18.8,3.55531810877,1.)) ;
#82=CARTESIAN_POINT('Vertex',(18.8,3.8232673012,2.)) ;
#85=CARTESIAN_POINT('Line Origine',(0.8,3.55531810877,1.)) ;
#89=CARTESIAN_POINT('Vertex',(0.8,3.8232673012,2.)) ;
#92=CARTESIAN_POINT('Line Origine',(9.8,3.8232673012,2.)) ;
#104=CARTESIAN_POINT('Axis2P3D Location',(0.8,3.9,3.)) ;
#109=CARTESIAN_POINT('Line Origine',(0.8,3.07981737198,1.)) ;
#113=CARTESIAN_POINT('Vertex',(0.8,3.25614435269,2.)) ;
#116=CARTESIAN_POINT('Line Origine',(0.8,3.53970582694,2.)) ;
#128=CARTESIAN_POINT('Axis2P3D Location',(9.8,3.25614435269,2.)) ;
#133=CARTESIAN_POINT('Line Origine',(18.8,3.07981737198,1.)) ;
#137=CARTESIAN_POINT('Vertex',(18.8,3.25614435269,2.)) ;
#140=CARTESIAN_POINT('Line Origine',(9.8,3.25614435269,2.)) ;
#152=CARTESIAN_POINT('Axis2P3D Location',(18.8,3.9,3.)) ;
#157=CARTESIAN_POINT('Line Origine',(18.8,3.53970582694,2.)) ;
#169=CARTESIAN_POINT('Axis2P3D Location',(9.8,3.9,2.)) ;
#174=CARTESIAN_POINT('Line Origine',(19.6,3.9,2.)) ;
#178=CARTESIAN_POINT('Vertex',(19.6,-6.00076931582E-016,2.)) ;
#180=CARTESIAN_POINT('Vertex',(19.6,7.8,2.)) ;
#183=CARTESIAN_POINT('Line Origine',(9.8,0.,2.)) ;
#187=CARTESIAN_POINT('Vertex',(-5.3290705182E-015,1.93234456113E-015,2.)) ;
#190=CARTESIAN_POINT('Line Origine',(-5.3290705182E-015,3.9,2.)) ;
#194=CARTESIAN_POINT('Vertex',(-7.1054273576E-015,7.8,2.)) ;
#197=CARTESIAN_POINT('Line Origine',(9.8,7.8,2.)) ;
#214=CARTESIAN_POINT('Line Origine',(0.8,4.26029417306,2.)) ;
#218=CARTESIAN_POINT('Vertex',(0.8,4.54385564731,2.)) ;
#220=CARTESIAN_POINT('Vertex',(0.8,3.9767326988,2.)) ;
#223=CARTESIAN_POINT('Line Origine',(9.8,3.9767326988,2.)) ;
#227=CARTESIAN_POINT('Vertex',(18.8,3.9767326988,2.)) ;
#230=CARTESIAN_POINT('Line Origine',(18.8,4.26029417306,2.)) ;
#234=CARTESIAN_POINT('Vertex',(18.8,4.54385564731,2.)) ;
#237=CARTESIAN_POINT('Line Origine',(9.8,4.54385564731,2.)) ;
#249=CARTESIAN_POINT('Axis2P3D Location',(19.6,7.8,3.)) ;
#254=CARTESIAN_POINT('Line Origine',(-7.07481118762E-015,7.8,2.5)) ;
#258=CARTESIAN_POINT('Vertex',(-7.1054273576E-015,7.8,3.)) ;
#261=CARTESIAN_POINT('Line Origine',(9.8,7.8,3.)) ;
#265=CARTESIAN_POINT('Vertex',(19.6,7.8,3.)) ;
#268=CARTESIAN_POINT('Line Origine',(19.6,7.8,2.5)) ;
#280=CARTESIAN_POINT('Axis2P3D Location',(-5.3290705182E-015,1.7763568394E-015,3.)) ;
#285=CARTESIAN_POINT('Line Origine',(-5.29845434822E-015,1.7763568394E-015,2.5)) ;
#289=CARTESIAN_POINT('Vertex',(-5.3290705182E-015,1.93234456113E-015,3.)) ;
#292=CARTESIAN_POINT('Line Origine',(-5.09026439237E-015,3.9,3.)) ;
#304=CARTESIAN_POINT('Axis2P3D Location',(-7.1054273576E-015,4.4408920985E-016,3.)) ;
#309=CARTESIAN_POINT('Line Origine',(19.6,-7.56064653314E-016,2.5)) ;
#313=CARTESIAN_POINT('Vertex',(19.6,-6.00076931582E-016,3.)) ;
#316=CARTESIAN_POINT('Line Origine',(9.8,-1.55987721732E-016,3.)) ;
#328=CARTESIAN_POINT('Axis2P3D Location',(19.6,7.8,3.)) ;
#333=CARTESIAN_POINT('Line Origine',(19.6,3.9,3.)) ;
#345=CARTESIAN_POINT('Axis2P3D Location',(9.8,3.9,3.)) ;
#357=CARTESIAN_POINT('Line Origine',(18.8,4.70457034619,4.4408920985E-016)) ;
#361=CARTESIAN_POINT('Vertex',(18.8,4.51263108366,4.4408920985E-016)) ;
#363=CARTESIAN_POINT('Vertex',(18.8,4.89650960873,4.4408920985E-016)) ;
#366=CARTESIAN_POINT('Line Origine',(18.8,4.72018262802,1.)) ;
#371=CARTESIAN_POINT('Line Origine',(18.8,4.24468189123,1.)) ;
#383=CARTESIAN_POINT('Axis2P3D Location',(9.8,4.54385564731,2.)) ;
#388=CARTESIAN_POINT('Line Origine',(9.8,4.89650960873,-4.4408920985E-016)) ;
#392=CARTESIAN_POINT('Vertex',(0.8,4.89650960873,-4.4408920985E-016)) ;
#395=CARTESIAN_POINT('Line Origine',(0.8,4.72018262802,1.)) ;
#407=CARTESIAN_POINT('Line Origine',(0.8,4.24468189123,1.)) ;
#411=CARTESIAN_POINT('Vertex',(0.8,4.51263108366,-4.4408920985E-016)) ;
#414=CARTESIAN_POINT('Line Origine',(0.8,4.70457034619,-4.4408920985E-016)) ;
#426=CARTESIAN_POINT('Axis2P3D Location',(9.8,4.51263108366,4.4408920985E-016)) ;
#431=CARTESIAN_POINT('Line Origine',(9.8,4.51263108366,4.4408920985E-016)) ;
#34=DIRECTION('Axis2P3D Direction',(6.12323399574E-017,-3.74939945665E-033,-1.)) ;
#35=DIRECTION('Axis2P3D XDirection',(6.12323399574E-017,1.,0.)) ;
#39=DIRECTION('Vector Direction',(0.,-1.,0.)) ;
#48=DIRECTION('Vector Direction',(1.,-4.93432455389E-017,6.12323399574E-017)) ;
#55=DIRECTION('Vector Direction',(0.,-1.,0.)) ;
#62=DIRECTION('Vector Direction',(1.,-4.93432455389E-017,6.12323399574E-017)) ;
#74=DIRECTION('Axis2P3D Direction',(7.49939943261E-017,0.965925826289,-0.258819045103)) ;
#75=DIRECTION('Axis2P3D XDirection',(-4.32978028118E-017,0.258819045103,0.965925826289)) ;
#79=DIRECTION('Vector Direction',(0.,0.258819045103,0.965925826289)) ;
#86=DIRECTION('Vector Direction',(0.,0.258819045103,0.965925826289)) ;
#93=DIRECTION('Vector Direction',(1.,-4.93432455389E-017,4.93432455389E-017)) ;
#105=DIRECTION('Axis2P3D Direction',(1.,-6.12323399574E-017,6.12323399574E-017)) ;
#106=DIRECTION('Axis2P3D XDirection',(6.12323399574E-017,1.,0.)) ;
#110=DIRECTION('Vector Direction',(0.,-0.173648177667,-0.984807753012)) ;
#117=DIRECTION('Vector Direction',(0.,-1.,0.)) ;
#129=DIRECTION('Axis2P3D Direction',(-7.0934967373E-017,-0.984807753012,0.173648177667)) ;
#130=DIRECTION('Axis2P3D XDirection',(4.96691988772E-017,-0.173648177667,-0.984807753012)) ;
#134=DIRECTION('Vector Direction',(0.,-0.173648177667,-0.984807753012)) ;
#141=DIRECTION('Vector Direction',(1.,-4.93432455389E-017,4.93432455389E-017)) ;
#153=DIRECTION('Axis2P3D Direction',(1.,-6.12323399574E-017,6.12323399574E-017)) ;
#154=DIRECTION('Axis2P3D XDirection',(6.12323399574E-017,1.,0.)) ;
#158=DIRECTION('Vector Direction',(0.,-1.,0.)) ;
#170=DIRECTION('Axis2P3D Direction',(-6.12323399574E-017,3.74939945665E-033,1.)) ;
#171=DIRECTION('Axis2P3D XDirection',(-6.12323399574E-017,-1.,0.)) ;
#175=DIRECTION('Vector Direction',(0.,-1.,0.)) ;
#184=DIRECTION('Vector Direction',(1.,-6.12323399574E-017,5.66440318686E-017)) ;
#191=DIRECTION('Vector Direction',(0.,1.,0.)) ;
#198=DIRECTION('Vector Direction',(-1.,9.06304509898E-017,-5.66440318686E-017)) ;
#215=DIRECTION('Vector Direction',(0.,1.,0.)) ;
#224=DIRECTION('Vector Direction',(1.,-4.93432455389E-017,4.93432455389E-017)) ;
#231=DIRECTION('Vector Direction',(0.,1.,0.)) ;
#238=DIRECTION('Vector Direction',(1.,-9.86864910778E-017,4.93432455389E-017)) ;
#250=DIRECTION('Axis2P3D Direction',(-6.12323399574E-017,-1.,0.)) ;
#251=DIRECTION('Axis2P3D XDirection',(-1.,6.12323399574E-017,-6.12323399574E-017)) ;
#255=DIRECTION('Vector Direction',(6.12323399574E-017,0.,-1.)) ;
#262=DIRECTION('Vector Direction',(-1.,4.53152254949E-017,-6.79728382424E-017)) ;
#269=DIRECTION('Vector Direction',(0.,0.,-1.)) ;
#281=DIRECTION('Axis2P3D Direction',(-1.,6.12323399574E-017,-6.12323399574E-017)) ;
#282=DIRECTION('Axis2P3D XDirection',(6.12323399574E-017,1.,0.)) ;
#286=DIRECTION('Vector Direction',(6.12323399574E-017,0.,-1.)) ;
#293=DIRECTION('Vector Direction',(6.12323399574E-017,1.,0.)) ;
#305=DIRECTION('Axis2P3D Direction',(6.12323399574E-017,1.,0.)) ;
#306=DIRECTION('Axis2P3D XDirection',(1.,-6.12323399574E-017,6.12323399574E-017)) ;
#310=DIRECTION('Vector Direction',(0.,0.,-1.)) ;
#317=DIRECTION('Vector Direction',(1.,-6.12323399574E-017,6.79728382424E-017)) ;
#329=DIRECTION('Axis2P3D Direction',(1.,-6.12323399574E-017,6.12323399574E-017)) ;
#330=DIRECTION('Axis2P3D XDirection',(-6.12323399574E-017,-1.,0.)) ;
#334=DIRECTION('Vector Direction',(0.,-1.,0.)) ;
#346=DIRECTION('Axis2P3D Direction',(-6.12323399574E-017,3.74939945665E-033,1.)) ;
#347=DIRECTION('Axis2P3D XDirection',(-6.12323399574E-017,-1.,0.)) ;
#358=DIRECTION('Vector Direction',(0.,1.,0.)) ;
#367=DIRECTION('Vector Direction',(0.,0.173648177667,-0.984807753012)) ;
#372=DIRECTION('Vector Direction',(0.,-0.258819045103,0.965925826289)) ;
#384=DIRECTION('Axis2P3D Direction',(-4.96691988772E-017,-0.984807753012,-0.173648177667)) ;
#385=DIRECTION('Axis2P3D XDirection',(7.0934967373E-017,0.173648177667,-0.984807753012)) ;
#389=DIRECTION('Vector Direction',(1.,-9.86864910778E-017,6.12323399574E-017)) ;
#396=DIRECTION('Vector Direction',(0.,0.173648177667,-0.984807753012)) ;
#408=DIRECTION('Vector Direction',(-5.36196546213E-017,-0.258819045103,0.965925826289)) ;
#415=DIRECTION('Vector Direction',(2.89212068955E-016,1.,0.)) ;
#427=DIRECTION('Axis2P3D Direction',(4.32978028118E-017,0.965925826289,0.258819045103)) ;
#428=DIRECTION('Axis2P3D XDirection',(-7.49939943261E-017,-0.258819045103,0.965925826289)) ;
#432=DIRECTION('Vector Direction',(1.,-9.86864910778E-017,6.12323399574E-017)) ;
#31=PRESENTATION_LAYER_ASSIGNMENT('1',' ',(#22)) ;
#8=PRODUCT_RELATED_PRODUCT_CATEGORY('part',$,(#5)) ;
#7=PRODUCT_CATEGORY('part','specification') ;
#30=STYLED_ITEM(' ',(#29),#22) ;
#29=PRESENTATION_STYLE_ASSIGNMENT((#28)) ;
#28=SURFACE_STYLE_USAGE(.BOTH.,#27) ;
#27=SURFACE_SIDE_STYLE(' ',(#26)) ;
#26=SURFACE_STYLE_FILL_AREA(#25) ;
#25=FILL_AREA_STYLE(' ',(#24)) ;
#24=FILL_AREA_STYLE_COLOUR(' ',#23) ;
#40=VECTOR('Line Direction',#39,1.) ;
#49=VECTOR('Line Direction',#48,1.) ;
#56=VECTOR('Line Direction',#55,1.) ;
#63=VECTOR('Line Direction',#62,1.) ;
#80=VECTOR('Line Direction',#79,1.) ;
#87=VECTOR('Line Direction',#86,1.) ;
#94=VECTOR('Line Direction',#93,1.) ;
#111=VECTOR('Line Direction',#110,1.) ;
#118=VECTOR('Line Direction',#117,1.) ;
#135=VECTOR('Line Direction',#134,1.) ;
#142=VECTOR('Line Direction',#141,1.) ;
#159=VECTOR('Line Direction',#158,1.) ;
#176=VECTOR('Line Direction',#175,1.) ;
#185=VECTOR('Line Direction',#184,1.) ;
#192=VECTOR('Line Direction',#191,1.) ;
#199=VECTOR('Line Direction',#198,1.) ;
#216=VECTOR('Line Direction',#215,1.) ;
#225=VECTOR('Line Direction',#224,1.) ;
#232=VECTOR('Line Direction',#231,1.) ;
#239=VECTOR('Line Direction',#238,1.) ;
#256=VECTOR('Line Direction',#255,1.) ;
#263=VECTOR('Line Direction',#262,1.) ;
#270=VECTOR('Line Direction',#269,1.) ;
#287=VECTOR('Line Direction',#286,1.) ;
#294=VECTOR('Line Direction',#293,1.) ;
#311=VECTOR('Line Direction',#310,1.) ;
#318=VECTOR('Line Direction',#317,1.) ;
#335=VECTOR('Line Direction',#334,1.) ;
#359=VECTOR('Line Direction',#358,1.) ;
#368=VECTOR('Line Direction',#367,1.) ;
#373=VECTOR('Line Direction',#372,1.) ;
#390=VECTOR('Line Direction',#389,1.) ;
#397=VECTOR('Line Direction',#396,1.) ;
#409=VECTOR('Line Direction',#408,1.) ;
#416=VECTOR('Line Direction',#415,1.) ;
#433=VECTOR('Line Direction',#432,1.) ;
#16=UNCERTAINTY_MEASURE_WITH_UNIT(LENGTH_MEASURE(0.005),#12,'distance_accuracy_value','CONFUSED CURVE UNCERTAINTY') ;
#451=SHAPE_REPRESENTATION_RELATIONSHIP(' ',' ',#20,#450) ;
#67=ORIENTED_EDGE('',*,*,#46,.T.) ;
#68=ORIENTED_EDGE('',*,*,#53,.F.) ;
#69=ORIENTED_EDGE('',*,*,#60,.F.) ;
#70=ORIENTED_EDGE('',*,*,#65,.T.) ;
#98=ORIENTED_EDGE('',*,*,#84,.T.) ;
#99=ORIENTED_EDGE('',*,*,#65,.F.) ;
#100=ORIENTED_EDGE('',*,*,#91,.F.) ;
#101=ORIENTED_EDGE('',*,*,#96,.T.) ;
#122=ORIENTED_EDGE('',*,*,#60,.T.) ;
#123=ORIENTED_EDGE('',*,*,#115,.T.) ;
#124=ORIENTED_EDGE('',*,*,#120,.T.) ;
#125=ORIENTED_EDGE('',*,*,#91,.T.) ;
#146=ORIENTED_EDGE('',*,*,#139,.T.) ;
#147=ORIENTED_EDGE('',*,*,#144,.F.) ;
#148=ORIENTED_EDGE('',*,*,#115,.F.) ;
#149=ORIENTED_EDGE('',*,*,#53,.T.) ;
#163=ORIENTED_EDGE('',*,*,#84,.F.) ;
#164=ORIENTED_EDGE('',*,*,#161,.F.) ;
#165=ORIENTED_EDGE('',*,*,#139,.F.) ;
#166=ORIENTED_EDGE('',*,*,#46,.F.) ;
#203=ORIENTED_EDGE('',*,*,#182,.F.) ;
#204=ORIENTED_EDGE('',*,*,#189,.F.) ;
#205=ORIENTED_EDGE('',*,*,#196,.F.) ;
#206=ORIENTED_EDGE('',*,*,#201,.F.) ;
#209=ORIENTED_EDGE('',*,*,#144,.T.) ;
#210=ORIENTED_EDGE('',*,*,#161,.T.) ;
#211=ORIENTED_EDGE('',*,*,#96,.F.) ;
#212=ORIENTED_EDGE('',*,*,#120,.F.) ;
#243=ORIENTED_EDGE('',*,*,#222,.T.) ;
#244=ORIENTED_EDGE('',*,*,#229,.T.) ;
#245=ORIENTED_EDGE('',*,*,#236,.F.) ;
#246=ORIENTED_EDGE('',*,*,#241,.F.) ;
#274=ORIENTED_EDGE('',*,*,#201,.T.) ;
#275=ORIENTED_EDGE('',*,*,#260,.F.) ;
#276=ORIENTED_EDGE('',*,*,#267,.F.) ;
#277=ORIENTED_EDGE('',*,*,#272,.T.) ;
#298=ORIENTED_EDGE('',*,*,#196,.T.) ;
#299=ORIENTED_EDGE('',*,*,#291,.F.) ;
#300=ORIENTED_EDGE('',*,*,#296,.F.) ;
#301=ORIENTED_EDGE('',*,*,#260,.T.) ;
#322=ORIENTED_EDGE('',*,*,#189,.T.) ;
#323=ORIENTED_EDGE('',*,*,#315,.F.) ;
#324=ORIENTED_EDGE('',*,*,#320,.F.) ;
#325=ORIENTED_EDGE('',*,*,#291,.T.) ;
#339=ORIENTED_EDGE('',*,*,#182,.T.) ;
#340=ORIENTED_EDGE('',*,*,#272,.F.) ;
#341=ORIENTED_EDGE('',*,*,#337,.F.) ;
#342=ORIENTED_EDGE('',*,*,#315,.T.) ;
#351=ORIENTED_EDGE('',*,*,#267,.T.) ;
#352=ORIENTED_EDGE('',*,*,#296,.T.) ;
#353=ORIENTED_EDGE('',*,*,#320,.T.) ;
#354=ORIENTED_EDGE('',*,*,#337,.T.) ;
#377=ORIENTED_EDGE('',*,*,#365,.T.) ;
#378=ORIENTED_EDGE('',*,*,#370,.T.) ;
#379=ORIENTED_EDGE('',*,*,#236,.T.) ;
#380=ORIENTED_EDGE('',*,*,#375,.T.) ;
#401=ORIENTED_EDGE('',*,*,#394,.F.) ;
#402=ORIENTED_EDGE('',*,*,#399,.T.) ;
#403=ORIENTED_EDGE('',*,*,#241,.T.) ;
#404=ORIENTED_EDGE('',*,*,#370,.F.) ;
#420=ORIENTED_EDGE('',*,*,#413,.F.) ;
#421=ORIENTED_EDGE('',*,*,#222,.F.) ;
#422=ORIENTED_EDGE('',*,*,#399,.F.) ;
#423=ORIENTED_EDGE('',*,*,#418,.F.) ;
#437=ORIENTED_EDGE('',*,*,#229,.F.) ;
#438=ORIENTED_EDGE('',*,*,#413,.T.) ;
#439=ORIENTED_EDGE('',*,*,#435,.T.) ;
#440=ORIENTED_EDGE('',*,*,#375,.F.) ;
#444=ORIENTED_EDGE('',*,*,#435,.F.) ;
#445=ORIENTED_EDGE('',*,*,#418,.T.) ;
#446=ORIENTED_EDGE('',*,*,#394,.T.) ;
#447=ORIENTED_EDGE('',*,*,#365,.F.) ;
#213=FACE_BOUND('',#208,.T.) ;
#247=FACE_BOUND('',#242,.T.) ;
#32=CLOSED_SHELL('Closed Shell',(#72,#103,#127,#151,#168,#248,#279,#303,#327,#344,#356,#382,#406,#425,#442,#449)) ;
#450=ADVANCED_BREP_SHAPE_REPRESENTATION('NONE',(#22),#17) ;
#72=ADVANCED_FACE('S3D gedreht',(#71),#37,.T.) ;
#103=ADVANCED_FACE('S3D gedreht',(#102),#77,.T.) ;
#127=ADVANCED_FACE('S3D gedreht',(#126),#108,.F.) ;
#151=ADVANCED_FACE('S3D gedreht',(#150),#132,.T.) ;
#168=ADVANCED_FACE('S3D gedreht',(#167),#156,.T.) ;
#248=ADVANCED_FACE('S3D gedreht',(#207,#213,#247),#173,.F.) ;
#279=ADVANCED_FACE('S3D gedreht',(#278),#253,.F.) ;
#303=ADVANCED_FACE('S3D gedreht',(#302),#284,.T.) ;
#327=ADVANCED_FACE('S3D gedreht',(#326),#308,.F.) ;
#344=ADVANCED_FACE('S3D gedreht',(#343),#332,.T.) ;
#356=ADVANCED_FACE('S3D gedreht',(#355),#349,.T.) ;
#382=ADVANCED_FACE('S3D gedreht',(#381),#156,.T.) ;
#406=ADVANCED_FACE('S3D gedreht',(#405),#387,.F.) ;
#425=ADVANCED_FACE('S3D gedreht',(#424),#108,.F.) ;
#442=ADVANCED_FACE('S3D gedreht',(#441),#430,.F.) ;
#449=ADVANCED_FACE('S3D gedreht',(#448),#37,.T.) ;
#4=APPLICATION_PROTOCOL_DEFINITION('international standard','automotive_design',2001,#1) ;
#22=MANIFOLD_SOLID_BREP('S3D gedreht',#32) ;
#23=DRAUGHTING_PRE_DEFINED_COLOUR('white') ;
#46=EDGE_CURVE('',#43,#45,#41,.T.) ;
#53=EDGE_CURVE('',#52,#45,#50,.T.) ;
#60=EDGE_CURVE('',#59,#52,#57,.T.) ;
#65=EDGE_CURVE('',#59,#43,#64,.T.) ;
#84=EDGE_CURVE('',#83,#43,#81,.F.) ;
#91=EDGE_CURVE('',#90,#59,#88,.F.) ;
#96=EDGE_CURVE('',#90,#83,#95,.T.) ;
#115=EDGE_CURVE('',#52,#114,#112,.F.) ;
#120=EDGE_CURVE('',#114,#90,#119,.F.) ;
#139=EDGE_CURVE('',#45,#138,#136,.F.) ;
#144=EDGE_CURVE('',#114,#138,#143,.T.) ;
#161=EDGE_CURVE('',#138,#83,#160,.F.) ;
#182=EDGE_CURVE('',#179,#181,#177,.F.) ;
#189=EDGE_CURVE('',#188,#179,#186,.T.) ;
#196=EDGE_CURVE('',#195,#188,#193,.F.) ;
#201=EDGE_CURVE('',#181,#195,#200,.T.) ;
#222=EDGE_CURVE('',#219,#221,#217,.F.) ;
#229=EDGE_CURVE('',#221,#228,#226,.T.) ;
#236=EDGE_CURVE('',#235,#228,#233,.F.) ;
#241=EDGE_CURVE('',#219,#235,#240,.T.) ;
#260=EDGE_CURVE('',#259,#195,#257,.T.) ;
#267=EDGE_CURVE('',#266,#259,#264,.T.) ;
#272=EDGE_CURVE('',#266,#181,#271,.T.) ;
#291=EDGE_CURVE('',#290,#188,#288,.T.) ;
#296=EDGE_CURVE('',#259,#290,#295,.F.) ;
#315=EDGE_CURVE('',#314,#179,#312,.T.) ;
#320=EDGE_CURVE('',#290,#314,#319,.T.) ;
#337=EDGE_CURVE('',#314,#266,#336,.F.) ;
#365=EDGE_CURVE('',#362,#364,#360,.T.) ;
#370=EDGE_CURVE('',#364,#235,#369,.F.) ;
#375=EDGE_CURVE('',#228,#362,#374,.F.) ;
#394=EDGE_CURVE('',#393,#364,#391,.T.) ;
#399=EDGE_CURVE('',#393,#219,#398,.F.) ;
#413=EDGE_CURVE('',#221,#412,#410,.F.) ;
#418=EDGE_CURVE('',#412,#393,#417,.T.) ;
#435=EDGE_CURVE('',#412,#362,#434,.T.) ;
#66=EDGE_LOOP('',(#67,#68,#69,#70)) ;
#97=EDGE_LOOP('',(#98,#99,#100,#101)) ;
#121=EDGE_LOOP('',(#122,#123,#124,#125)) ;
#145=EDGE_LOOP('',(#146,#147,#148,#149)) ;
#162=EDGE_LOOP('',(#163,#164,#165,#166)) ;
#202=EDGE_LOOP('',(#203,#204,#205,#206)) ;
#208=EDGE_LOOP('',(#209,#210,#211,#212)) ;
#242=EDGE_LOOP('',(#243,#244,#245,#246)) ;
#273=EDGE_LOOP('',(#274,#275,#276,#277)) ;
#297=EDGE_LOOP('',(#298,#299,#300,#301)) ;
#321=EDGE_LOOP('',(#322,#323,#324,#325)) ;
#338=EDGE_LOOP('',(#339,#340,#341,#342)) ;
#350=EDGE_LOOP('',(#351,#352,#353,#354)) ;
#376=EDGE_LOOP('',(#377,#378,#379,#380)) ;
#400=EDGE_LOOP('',(#401,#402,#403,#404)) ;
#419=EDGE_LOOP('',(#420,#421,#422,#423)) ;
#436=EDGE_LOOP('',(#437,#438,#439,#440)) ;
#443=EDGE_LOOP('',(#444,#445,#446,#447)) ;
#71=FACE_OUTER_BOUND('',#66,.T.) ;
#102=FACE_OUTER_BOUND('',#97,.T.) ;
#126=FACE_OUTER_BOUND('',#121,.T.) ;
#150=FACE_OUTER_BOUND('',#145,.T.) ;
#167=FACE_OUTER_BOUND('',#162,.T.) ;
#207=FACE_OUTER_BOUND('',#202,.T.) ;
#278=FACE_OUTER_BOUND('',#273,.T.) ;
#302=FACE_OUTER_BOUND('',#297,.T.) ;
#326=FACE_OUTER_BOUND('',#321,.T.) ;
#343=FACE_OUTER_BOUND('',#338,.T.) ;
#355=FACE_OUTER_BOUND('',#350,.T.) ;
#381=FACE_OUTER_BOUND('',#376,.T.) ;
#405=FACE_OUTER_BOUND('',#400,.T.) ;
#424=FACE_OUTER_BOUND('',#419,.T.) ;
#441=FACE_OUTER_BOUND('',#436,.T.) ;
#448=FACE_OUTER_BOUND('',#443,.T.) ;
#41=LINE('Line',#38,#40) ;
#50=LINE('Line',#47,#49) ;
#57=LINE('Line',#54,#56) ;
#64=LINE('Line',#61,#63) ;
#81=LINE('Line',#78,#80) ;
#88=LINE('Line',#85,#87) ;
#95=LINE('Line',#92,#94) ;
#112=LINE('Line',#109,#111) ;
#119=LINE('Line',#116,#118) ;
#136=LINE('Line',#133,#135) ;
#143=LINE('Line',#140,#142) ;
#160=LINE('Line',#157,#159) ;
#177=LINE('Line',#174,#176) ;
#186=LINE('Line',#183,#185) ;
#193=LINE('Line',#190,#192) ;
#200=LINE('Line',#197,#199) ;
#217=LINE('Line',#214,#216) ;
#226=LINE('Line',#223,#225) ;
#233=LINE('Line',#230,#232) ;
#240=LINE('Line',#237,#239) ;
#257=LINE('Line',#254,#256) ;
#264=LINE('Line',#261,#263) ;
#271=LINE('Line',#268,#270) ;
#288=LINE('Line',#285,#287) ;
#295=LINE('Line',#292,#294) ;
#312=LINE('Line',#309,#311) ;
#319=LINE('Line',#316,#318) ;
#336=LINE('Line',#333,#335) ;
#360=LINE('Line',#357,#359) ;
#369=LINE('Line',#366,#368) ;
#374=LINE('Line',#371,#373) ;
#391=LINE('Line',#388,#390) ;
#398=LINE('Line',#395,#397) ;
#410=LINE('Line',#407,#409) ;
#417=LINE('Line',#414,#416) ;
#434=LINE('Line',#431,#433) ;
#37=PLANE('',#36) ;
#77=PLANE('',#76) ;
#108=PLANE('',#107) ;
#132=PLANE('',#131) ;
#156=PLANE('',#155) ;
#173=PLANE('',#172) ;
#253=PLANE('',#252) ;
#284=PLANE('',#283) ;
#308=PLANE('',#307) ;
#332=PLANE('',#331) ;
#349=PLANE('',#348) ;
#387=PLANE('',#386) ;
#430=PLANE('',#429) ;
#14=PLANE_ANGLE_MEASURE_WITH_UNIT(PLANE_ANGLE_MEASURE(0.0174532925199),#13) ;
#9=PRODUCT_CATEGORY_RELATIONSHIP(' ',' ',#7,#8) ;
#6=PRODUCT_DEFINITION_FORMATION_WITH_SPECIFIED_SOURCE('',' ',#5,.NOT_KNOWN.) ;
#21=SHAPE_DEFINITION_REPRESENTATION(#11,#20) ;
#43=VERTEX_POINT('',#42) ;
#45=VERTEX_POINT('',#44) ;
#52=VERTEX_POINT('',#51) ;
#59=VERTEX_POINT('',#58) ;
#83=VERTEX_POINT('',#82) ;
#90=VERTEX_POINT('',#89) ;
#114=VERTEX_POINT('',#113) ;
#138=VERTEX_POINT('',#137) ;
#179=VERTEX_POINT('',#178) ;
#181=VERTEX_POINT('',#180) ;
#188=VERTEX_POINT('',#187) ;
#195=VERTEX_POINT('',#194) ;
#219=VERTEX_POINT('',#218) ;
#221=VERTEX_POINT('',#220) ;
#228=VERTEX_POINT('',#227) ;
#235=VERTEX_POINT('',#234) ;
#259=VERTEX_POINT('',#258) ;
#266=VERTEX_POINT('',#265) ;
#290=VERTEX_POINT('',#289) ;
#314=VERTEX_POINT('',#313) ;
#362=VERTEX_POINT('',#361) ;
#364=VERTEX_POINT('',#363) ;
#393=VERTEX_POINT('',#392) ;
#412=VERTEX_POINT('',#411) ;
#12=(LENGTH_UNIT()NAMED_UNIT(*)SI_UNIT(.MILLI.,.METRE.)) ;
#13=(NAMED_UNIT(*)PLANE_ANGLE_UNIT()SI_UNIT($,.RADIAN.)) ;
#15=(NAMED_UNIT(*)SI_UNIT($,.STERADIAN.)SOLID_ANGLE_UNIT()) ;
#17=(GEOMETRIC_REPRESENTATION_CONTEXT(3)GLOBAL_UNCERTAINTY_ASSIGNED_CONTEXT((#16))GLOBAL_UNIT_ASSIGNED_CONTEXT((#12,#13,#15))REPRESENTATION_CONTEXT(' ',' ')) ;
ENDSEC;
END-ISO-10303-21;
