ISO-10303-21;
HEADER;
FILE_DESCRIPTION(('CATIA V5R19 STEP'),'2;1');

FILE_NAME ('D1456573_0_1806320000_1806320000.stp','2015-10-27T12:59:58+00:00',('none'),('Weidmueller'),'CATIA Version 5 Release 20 SP 5 (IN-10)','CATIA V5 STEP AP214','none');

FILE_SCHEMA(('AUTOMOTIVE_DESIGN { 1 0 10303 214 1 1 1 1 }'));

ENDSEC;
/* file written by CATIA V5R20 */
DATA;
#5=PRODUCT('TM 206/18 V0','','<Q-CHECKER_SEAL> Q-Checker Version 2.14.8  \X2\000A\X0\CATIA-Version         : Catia V5 R20 SP5 Build Date 01-06-2014.17.15\X2\000A\X0\Model size (in KByte) : 0\X2\000A\X0\Checking date         : 2015-08-25 15:51:43\X2\000A\X0\Checking profile      : ADMIN / Release_2D-3D [CATPart]\X2\000A\X0\Model assessment      : In Ordnung (IO)\X2\000A\X0\Total weight sum      : 0\X2\000A\X0\<CROSS_CHECK_SUM>\X2\000A\X0\  <CHKSUM_DATE> -1200670945 </CHKSUM_DATE>\X2\000A\X0\  <CHKSUM_ENTITIES> -1473968788 </CHKSUM_ENTITIES>\X2\000A\X0\  <CHKSUM_PROFILE> 1594213346 </CHKSUM_PROFILE>\X2\000A\X0\  <CHKSUM_DIMENSION> -186917087 </CHKSUM_DIMENSION>\X2\000A\X0\  <CHKSUM_PROJINTERSEC> -896974048 </CHKSUM_PROJINTERSEC>\X2\000A\X0\  <CHKSUM_IDENTCRV> -896974048 </CHKSUM_IDENTCRV>\X2\000A\X0\  <CHKSUM_INFINITY> 138018827 </CHKSUM_INFINITY>\X2\000A\X0\</CROSS_CHECK_SUM>\X2\000A\X0\</Q-CHECKER_SEAL> \X2\000A\X0\ \X2\000D\X0\\X2\000A\X0\ \X2\000D\X0\\X2\000A\X0\ \X2\000D\X0\\X2\000A\X0\ \X2\000D\X0\\X2\000A\X0\ \X2\000D\X0\\X2\000A\X0\ \X2\000D\X0\\X2\000A\X0\ \X2\000D\X0\\X2\000A\X0\ \X2\000D\X0\\X2\000A\X0\ \X2\000D\X0\\X2\000A\X0\ \X2\000D\X0\\X2\000A\X0\ \X2\000D\X0\\X2\000A\X0\',(#2)) ;
#2=PRODUCT_CONTEXT(' ',#1,'mechanical') ;
#1=APPLICATION_CONTEXT('automotive design') ;
#10=PRODUCT_DEFINITION('52989',' ',#6,#3) ;
#3=PRODUCT_DEFINITION_CONTEXT('part definition',#1,' ') ;
#11=PRODUCT_DEFINITION_SHAPE(' ',' ',#10) ;
#521=MECHANICAL_DESIGN_GEOMETRIC_PRESENTATION_REPRESENTATION(' ',(#30),#17) ;
#20=SHAPE_REPRESENTATION(' ',(#19),#17) ;
#19=AXIS2_PLACEMENT_3D(' ',#18,$,$) ;
#36=AXIS2_PLACEMENT_3D('Plane Axis2P3D',#33,#34,#35) ;
#49=AXIS2_PLACEMENT_3D('Circle Axis2P3D',#47,#48,$) ;
#63=AXIS2_PLACEMENT_3D('Circle Axis2P3D',#61,#62,$) ;
#77=AXIS2_PLACEMENT_3D('Circle Axis2P3D',#75,#76,$) ;
#106=AXIS2_PLACEMENT_3D('Circle Axis2P3D',#104,#105,$) ;
#124=AXIS2_PLACEMENT_3D('Circle Axis2P3D',#122,#123,$) ;
#140=AXIS2_PLACEMENT_3D('Circle Axis2P3D',#138,#139,$) ;
#160=AXIS2_PLACEMENT_3D('Plane Axis2P3D',#157,#158,#159) ;
#191=AXIS2_PLACEMENT_3D('Cylinder Axis2P3D',#188,#189,#190) ;
#195=AXIS2_PLACEMENT_3D('Circle Axis2P3D',#193,#194,$) ;
#215=AXIS2_PLACEMENT_3D('Plane Axis2P3D',#212,#213,#214) ;
#239=AXIS2_PLACEMENT_3D('Plane Axis2P3D',#236,#237,#238) ;
#256=AXIS2_PLACEMENT_3D('Plane Axis2P3D',#253,#254,#255) ;
#287=AXIS2_PLACEMENT_3D('Cylinder Axis2P3D',#284,#285,#286) ;
#291=AXIS2_PLACEMENT_3D('Circle Axis2P3D',#289,#290,$) ;
#311=AXIS2_PLACEMENT_3D('Plane Axis2P3D',#308,#309,#310) ;
#335=AXIS2_PLACEMENT_3D('Cylinder Axis2P3D',#332,#333,#334) ;
#339=AXIS2_PLACEMENT_3D('Circle Axis2P3D',#337,#338,$) ;
#352=AXIS2_PLACEMENT_3D('Plane Axis2P3D',#349,#350,#351) ;
#365=AXIS2_PLACEMENT_3D('Circle Axis2P3D',#363,#364,$) ;
#379=AXIS2_PLACEMENT_3D('Circle Axis2P3D',#377,#378,$) ;
#393=AXIS2_PLACEMENT_3D('Circle Axis2P3D',#391,#392,$) ;
#420=AXIS2_PLACEMENT_3D('Plane Axis2P3D',#417,#418,#419) ;
#442=AXIS2_PLACEMENT_3D('Cylinder Axis2P3D',#439,#440,#441) ;
#459=AXIS2_PLACEMENT_3D('Plane Axis2P3D',#456,#457,#458) ;
#476=AXIS2_PLACEMENT_3D('Cylinder Axis2P3D',#473,#474,#475) ;
#493=AXIS2_PLACEMENT_3D('Plane Axis2P3D',#490,#491,#492) ;
#510=AXIS2_PLACEMENT_3D('Cylinder Axis2P3D',#507,#508,#509) ;
#18=CARTESIAN_POINT(' ',(0.,0.,0.)) ;
#33=CARTESIAN_POINT('Axis2P3D Location',(10.,0.,18.4)) ;
#38=CARTESIAN_POINT('Line Origine',(7.2,2.70628425008E-016,19.5803024154)) ;
#42=CARTESIAN_POINT('Vertex',(7.2,-1.73796041345E-016,19.4606048308)) ;
#44=CARTESIAN_POINT('Vertex',(7.2,3.42901103761E-016,19.7)) ;
#47=CARTESIAN_POINT('Axis2P3D Location',(10.91117065,4.51753829544E-016,9.199958781)) ;
#51=CARTESIAN_POINT('Vertex',(5.04479158099,1.73351306816E-015,0.)) ;
#54=CARTESIAN_POINT('Line Origine',(10.,1.12667505522E-015,0.)) ;
#58=CARTESIAN_POINT('Vertex',(14.955208419,-1.55089231273E-016,3.5527136788E-015)) ;
#61=CARTESIAN_POINT('Axis2P3D Location',(9.08882935,6.74926273543E-016,9.199958781)) ;
#65=CARTESIAN_POINT('Vertex',(12.8,-4.07844419323E-016,19.4606048308)) ;
#68=CARTESIAN_POINT('Line Origine',(12.8,-4.15173782515E-016,19.5803024154)) ;
#72=CARTESIAN_POINT('Vertex',(12.8,-3.42901103761E-016,19.7)) ;
#75=CARTESIAN_POINT('Axis2P3D Location',(10.,-7.96020419446E-017,19.7)) ;
#88=CARTESIAN_POINT('Line Origine',(10.,-6.12323399574E-017,19.4)) ;
#92=CARTESIAN_POINT('Vertex',(11.8,-2.81668763804E-016,19.4)) ;
#94=CARTESIAN_POINT('Vertex',(8.2,1.59204083889E-016,19.4)) ;
#97=CARTESIAN_POINT('Line Origine',(8.2,1.50019232896E-016,19.55)) ;
#101=CARTESIAN_POINT('Vertex',(8.2,1.40834381902E-016,19.7)) ;
#104=CARTESIAN_POINT('Axis2P3D Location',(10.,-7.96020419446E-017,19.7)) ;
#108=CARTESIAN_POINT('Vertex',(11.8,-2.20436423847E-016,19.7)) ;
#111=CARTESIAN_POINT('Line Origine',(11.8,-2.90853614797E-016,19.55)) ;
#122=CARTESIAN_POINT('Axis2P3D Location',(9.08882935,6.74926273543E-016,9.199958781)) ;
#126=CARTESIAN_POINT('Vertex',(12.7753650167,-1.01481046197E-015,18.4)) ;
#128=CARTESIAN_POINT('Vertex',(14.5056538706,-1.55143783361E-016,0.9)) ;
#131=CARTESIAN_POINT('Line Origine',(10.,1.07156594925E-015,0.9)) ;
#135=CARTESIAN_POINT('Vertex',(5.49434612939,1.62334940832E-015,0.9)) ;
#138=CARTESIAN_POINT('Axis2P3D Location',(10.91117065,4.51753829544E-016,9.199958781)) ;
#142=CARTESIAN_POINT('Vertex',(7.22463498326,-1.11869641122E-016,18.4)) ;
#145=CARTESIAN_POINT('Line Origine',(10.,1.97215226305E-031,18.4)) ;
#157=CARTESIAN_POINT('Axis2P3D Location',(11.8,-2.81668763804E-016,19.4)) ;
#162=CARTESIAN_POINT('Line Origine',(11.8,9.,19.4)) ;
#166=CARTESIAN_POINT('Vertex',(11.8,18.,19.4)) ;
#169=CARTESIAN_POINT('Line Origine',(11.8,9.,19.7)) ;
#173=CARTESIAN_POINT('Vertex',(11.8,18.,19.7)) ;
#176=CARTESIAN_POINT('Line Origine',(11.8,18.,19.55)) ;
#188=CARTESIAN_POINT('Axis2P3D Location',(10.,9.61000000001,19.7)) ;
#193=CARTESIAN_POINT('Axis2P3D Location',(10.,18.,19.7)) ;
#197=CARTESIAN_POINT('Vertex',(8.2,18.,19.7)) ;
#200=CARTESIAN_POINT('Line Origine',(8.2,9.61000000001,19.7)) ;
#212=CARTESIAN_POINT('Axis2P3D Location',(8.2,1.59204083889E-016,19.4)) ;
#217=CARTESIAN_POINT('Line Origine',(8.2,18.,19.55)) ;
#221=CARTESIAN_POINT('Vertex',(8.2,18.,19.4)) ;
#224=CARTESIAN_POINT('Line Origine',(8.2,9.,19.4)) ;
#236=CARTESIAN_POINT('Axis2P3D Location',(11.8,-2.81668763804E-016,19.4)) ;
#241=CARTESIAN_POINT('Line Origine',(10.,18.,19.4)) ;
#253=CARTESIAN_POINT('Axis2P3D Location',(12.7753650167,-3.39884188422E-016,18.4)) ;
#258=CARTESIAN_POINT('Line Origine',(12.7753650167,9.,18.4)) ;
#262=CARTESIAN_POINT('Vertex',(12.7753650167,18.,18.4)) ;
#265=CARTESIAN_POINT('Line Origine',(7.22463498326,9.,18.4)) ;
#269=CARTESIAN_POINT('Vertex',(7.22463498326,18.,18.4)) ;
#272=CARTESIAN_POINT('Line Origine',(10.,18.,18.4)) ;
#284=CARTESIAN_POINT('Axis2P3D Location',(10.91117065,9.61000000001,9.199958781)) ;
#289=CARTESIAN_POINT('Axis2P3D Location',(10.91117065,18.,9.199958781)) ;
#293=CARTESIAN_POINT('Vertex',(5.49434612939,18.,0.9)) ;
#296=CARTESIAN_POINT('Line Origine',(5.49434612939,9.61000000001,0.9)) ;
#308=CARTESIAN_POINT('Axis2P3D Location',(14.5056538706,5.19782490183E-016,0.9)) ;
#313=CARTESIAN_POINT('Line Origine',(10.,18.,0.9)) ;
#317=CARTESIAN_POINT('Vertex',(14.5056538706,18.,0.9)) ;
#320=CARTESIAN_POINT('Line Origine',(14.5056538706,9.,0.9)) ;
#332=CARTESIAN_POINT('Axis2P3D Location',(9.08882935,9.61000000001,9.199958781)) ;
#337=CARTESIAN_POINT('Axis2P3D Location',(9.08882935,18.,9.199958781)) ;
#349=CARTESIAN_POINT('Axis2P3D Location',(10.,18.,18.4)) ;
#354=CARTESIAN_POINT('Line Origine',(7.2,18.,19.5803024154)) ;
#358=CARTESIAN_POINT('Vertex',(7.2,18.,19.7)) ;
#360=CARTESIAN_POINT('Vertex',(7.2,18.,19.4606048308)) ;
#363=CARTESIAN_POINT('Axis2P3D Location',(10.,18.,19.7)) ;
#367=CARTESIAN_POINT('Vertex',(12.8,18.,19.7)) ;
#370=CARTESIAN_POINT('Line Origine',(12.8,18.,19.5803024154)) ;
#374=CARTESIAN_POINT('Vertex',(12.8,18.,19.4606048308)) ;
#377=CARTESIAN_POINT('Axis2P3D Location',(9.08882935,18.,9.199958781)) ;
#381=CARTESIAN_POINT('Vertex',(14.955208419,18.,3.5527136788E-015)) ;
#384=CARTESIAN_POINT('Line Origine',(10.,18.,0.)) ;
#388=CARTESIAN_POINT('Vertex',(5.04479158099,18.,1.10218211923E-015)) ;
#391=CARTESIAN_POINT('Axis2P3D Location',(10.91117065,18.,9.199958781)) ;
#417=CARTESIAN_POINT('Axis2P3D Location',(7.2,2.63299061817E-016,19.7)) ;
#422=CARTESIAN_POINT('Line Origine',(7.2,9.,19.4606048308)) ;
#427=CARTESIAN_POINT('Line Origine',(7.2,9.,19.7)) ;
#439=CARTESIAN_POINT('Axis2P3D Location',(10.91117065,9.61000000001,9.199958781)) ;
#444=CARTESIAN_POINT('Line Origine',(5.04479158099,9.61000000001,1.7763568394E-015)) ;
#456=CARTESIAN_POINT('Axis2P3D Location',(14.955208419,5.19837042271E-016,0.)) ;
#461=CARTESIAN_POINT('Line Origine',(14.955208419,9.,5.51091059616E-016)) ;
#473=CARTESIAN_POINT('Axis2P3D Location',(9.08882935,9.61000000001,9.199958781)) ;
#478=CARTESIAN_POINT('Line Origine',(12.8,9.61000000001,19.4606048308)) ;
#490=CARTESIAN_POINT('Axis2P3D Location',(12.8,-4.22503145706E-016,19.7)) ;
#495=CARTESIAN_POINT('Line Origine',(12.8,9.,19.7)) ;
#507=CARTESIAN_POINT('Axis2P3D Location',(10.,9.61000000001,19.7)) ;
#34=DIRECTION('Axis2P3D Direction',(1.22464679915E-016,1.,6.12323399574E-017)) ;
#35=DIRECTION('Axis2P3D XDirection',(-1.,1.22464679915E-016,0.)) ;
#39=DIRECTION('Vector Direction',(0.,6.12323399574E-017,-1.)) ;
#48=DIRECTION('Axis2P3D Direction',(1.22464679915E-016,1.,6.12323399574E-017)) ;
#55=DIRECTION('Vector Direction',(-1.,1.22464679915E-016,0.)) ;
#62=DIRECTION('Axis2P3D Direction',(1.22464679915E-016,1.,6.12323399574E-017)) ;
#69=DIRECTION('Vector Direction',(0.,6.12323399574E-017,-1.)) ;
#76=DIRECTION('Axis2P3D Direction',(1.22464679915E-016,1.,6.12323399574E-017)) ;
#89=DIRECTION('Vector Direction',(-1.,1.22464679915E-016,0.)) ;
#98=DIRECTION('Vector Direction',(0.,-6.12323399574E-017,1.)) ;
#105=DIRECTION('Axis2P3D Direction',(1.22464679915E-016,1.,6.12323399574E-017)) ;
#112=DIRECTION('Vector Direction',(0.,-6.12323399574E-017,1.)) ;
#123=DIRECTION('Axis2P3D Direction',(1.22464679915E-016,1.,6.12323399574E-017)) ;
#132=DIRECTION('Vector Direction',(-1.,1.22464679915E-016,0.)) ;
#139=DIRECTION('Axis2P3D Direction',(1.22464679915E-016,1.,6.12323399574E-017)) ;
#146=DIRECTION('Vector Direction',(-1.,1.22464679915E-016,0.)) ;
#158=DIRECTION('Axis2P3D Direction',(-1.,1.22464679915E-016,0.)) ;
#159=DIRECTION('Axis2P3D XDirection',(-7.49879891331E-033,-6.12323399574E-017,1.)) ;
#163=DIRECTION('Vector Direction',(9.86864910778E-017,1.,0.)) ;
#170=DIRECTION('Vector Direction',(9.86864910778E-017,1.,0.)) ;
#177=DIRECTION('Vector Direction',(0.,0.,1.)) ;
#189=DIRECTION('Axis2P3D Direction',(1.22464679915E-016,1.,6.12323399574E-017)) ;
#190=DIRECTION('Axis2P3D XDirection',(-1.,1.22464679915E-016,0.)) ;
#194=DIRECTION('Axis2P3D Direction',(1.22464679915E-016,1.,6.12323399574E-017)) ;
#201=DIRECTION('Vector Direction',(1.84844624287E-016,1.,0.)) ;
#213=DIRECTION('Axis2P3D Direction',(-1.,1.22464679915E-016,0.)) ;
#214=DIRECTION('Axis2P3D XDirection',(-7.49879891331E-033,-6.12323399574E-017,1.)) ;
#218=DIRECTION('Vector Direction',(0.,0.,1.)) ;
#225=DIRECTION('Vector Direction',(9.86864910778E-017,1.,0.)) ;
#237=DIRECTION('Axis2P3D Direction',(7.49879891331E-033,6.12323399574E-017,-1.)) ;
#238=DIRECTION('Axis2P3D XDirection',(-1.,1.22464679915E-016,0.)) ;
#242=DIRECTION('Vector Direction',(-1.,0.,0.)) ;
#254=DIRECTION('Axis2P3D Direction',(7.49879891331E-033,6.12323399574E-017,-1.)) ;
#255=DIRECTION('Axis2P3D XDirection',(-1.,1.22464679915E-016,0.)) ;
#259=DIRECTION('Vector Direction',(9.86864910778E-017,1.,0.)) ;
#266=DIRECTION('Vector Direction',(9.86864910778E-017,1.,0.)) ;
#273=DIRECTION('Vector Direction',(-1.,0.,0.)) ;
#285=DIRECTION('Axis2P3D Direction',(1.22464679915E-016,1.,6.12323399574E-017)) ;
#286=DIRECTION('Axis2P3D XDirection',(-0.546537307438,1.18209606126E-016,-0.83743475661)) ;
#290=DIRECTION('Axis2P3D Direction',(1.22464679915E-016,1.,6.12323399574E-017)) ;
#297=DIRECTION('Vector Direction',(1.84844624287E-016,1.,0.)) ;
#309=DIRECTION('Axis2P3D Direction',(7.49879891331E-033,6.12323399574E-017,-1.)) ;
#310=DIRECTION('Axis2P3D XDirection',(-1.,1.22464679915E-016,0.)) ;
#314=DIRECTION('Vector Direction',(-1.,0.,0.)) ;
#321=DIRECTION('Vector Direction',(9.86864910778E-017,1.,6.16790569236E-017)) ;
#333=DIRECTION('Axis2P3D Direction',(1.22464679915E-016,1.,6.12323399574E-017)) ;
#334=DIRECTION('Axis2P3D XDirection',(0.371957642233,-1.02390575019E-016,0.928249703681)) ;
#338=DIRECTION('Axis2P3D Direction',(1.22464679915E-016,1.,6.12323399574E-017)) ;
#350=DIRECTION('Axis2P3D Direction',(1.22464679915E-016,1.,6.12323399574E-017)) ;
#351=DIRECTION('Axis2P3D XDirection',(-1.,1.22464679915E-016,0.)) ;
#355=DIRECTION('Vector Direction',(0.,0.,-1.)) ;
#364=DIRECTION('Axis2P3D Direction',(1.22464679915E-016,1.,6.12323399574E-017)) ;
#371=DIRECTION('Vector Direction',(0.,0.,-1.)) ;
#378=DIRECTION('Axis2P3D Direction',(1.22464679915E-016,1.,6.12323399574E-017)) ;
#385=DIRECTION('Vector Direction',(-1.,0.,0.)) ;
#392=DIRECTION('Axis2P3D Direction',(1.22464679915E-016,1.,6.12323399574E-017)) ;
#418=DIRECTION('Axis2P3D Direction',(1.,-1.22464679915E-016,0.)) ;
#419=DIRECTION('Axis2P3D XDirection',(7.49879891331E-033,6.12323399574E-017,-1.)) ;
#423=DIRECTION('Vector Direction',(9.86864910778E-017,1.,0.)) ;
#428=DIRECTION('Vector Direction',(9.86864910778E-017,1.,0.)) ;
#440=DIRECTION('Axis2P3D Direction',(1.22464679915E-016,1.,6.12323399574E-017)) ;
#441=DIRECTION('Axis2P3D XDirection',(-0.537648915702,1.1747220163E-016,-0.843168810764)) ;
#445=DIRECTION('Vector Direction',(1.84844624287E-016,1.,0.)) ;
#457=DIRECTION('Axis2P3D Direction',(7.49879891331E-033,6.12323399574E-017,-1.)) ;
#458=DIRECTION('Axis2P3D XDirection',(-1.,1.22464679915E-016,0.)) ;
#462=DIRECTION('Vector Direction',(9.86864910778E-017,1.,6.12323399574E-017)) ;
#474=DIRECTION('Axis2P3D Direction',(1.22464679915E-016,1.,6.12323399574E-017)) ;
#475=DIRECTION('Axis2P3D XDirection',(0.340125800342,-9.92350617179E-017,0.94037994446)) ;
#479=DIRECTION('Vector Direction',(1.84844624287E-016,1.,0.)) ;
#491=DIRECTION('Axis2P3D Direction',(1.,-1.22464679915E-016,0.)) ;
#492=DIRECTION('Axis2P3D XDirection',(7.49879891331E-033,6.12323399574E-017,-1.)) ;
#496=DIRECTION('Vector Direction',(9.86864910778E-017,1.,0.)) ;
#508=DIRECTION('Axis2P3D Direction',(1.22464679915E-016,1.,6.12323399574E-017)) ;
#509=DIRECTION('Axis2P3D XDirection',(-1.,1.22464679915E-016,0.)) ;
#31=PRESENTATION_LAYER_ASSIGNMENT('1',' ',(#22)) ;
#8=PRODUCT_RELATED_PRODUCT_CATEGORY('part',$,(#5)) ;
#7=PRODUCT_CATEGORY('part','specification') ;
#30=STYLED_ITEM(' ',(#29),#22) ;
#29=PRESENTATION_STYLE_ASSIGNMENT((#28)) ;
#28=SURFACE_STYLE_USAGE(.BOTH.,#27) ;
#27=SURFACE_SIDE_STYLE(' ',(#26)) ;
#26=SURFACE_STYLE_FILL_AREA(#25) ;
#25=FILL_AREA_STYLE(' ',(#24)) ;
#24=FILL_AREA_STYLE_COLOUR(' ',#23) ;
#40=VECTOR('Line Direction',#39,1.) ;
#56=VECTOR('Line Direction',#55,1.) ;
#70=VECTOR('Line Direction',#69,1.) ;
#90=VECTOR('Line Direction',#89,1.) ;
#99=VECTOR('Line Direction',#98,1.) ;
#113=VECTOR('Line Direction',#112,1.) ;
#133=VECTOR('Line Direction',#132,1.) ;
#147=VECTOR('Line Direction',#146,1.) ;
#164=VECTOR('Line Direction',#163,1.) ;
#171=VECTOR('Line Direction',#170,1.) ;
#178=VECTOR('Line Direction',#177,1.) ;
#202=VECTOR('Line Direction',#201,1.) ;
#219=VECTOR('Line Direction',#218,1.) ;
#226=VECTOR('Line Direction',#225,1.) ;
#243=VECTOR('Line Direction',#242,1.) ;
#260=VECTOR('Line Direction',#259,1.) ;
#267=VECTOR('Line Direction',#266,1.) ;
#274=VECTOR('Line Direction',#273,1.) ;
#298=VECTOR('Line Direction',#297,1.) ;
#315=VECTOR('Line Direction',#314,1.) ;
#322=VECTOR('Line Direction',#321,1.) ;
#356=VECTOR('Line Direction',#355,1.) ;
#372=VECTOR('Line Direction',#371,1.) ;
#386=VECTOR('Line Direction',#385,1.) ;
#424=VECTOR('Line Direction',#423,1.) ;
#429=VECTOR('Line Direction',#428,1.) ;
#446=VECTOR('Line Direction',#445,1.) ;
#463=VECTOR('Line Direction',#462,1.) ;
#480=VECTOR('Line Direction',#479,1.) ;
#497=VECTOR('Line Direction',#496,1.) ;
#16=UNCERTAINTY_MEASURE_WITH_UNIT(LENGTH_MEASURE(0.005),#12,'distance_accuracy_value','CONFUSED CURVE UNCERTAINTY') ;
#520=SHAPE_REPRESENTATION_RELATIONSHIP(' ',' ',#20,#519) ;
#81=ORIENTED_EDGE('',*,*,#46,.F.) ;
#82=ORIENTED_EDGE('',*,*,#53,.F.) ;
#83=ORIENTED_EDGE('',*,*,#60,.F.) ;
#84=ORIENTED_EDGE('',*,*,#67,.F.) ;
#85=ORIENTED_EDGE('',*,*,#74,.F.) ;
#86=ORIENTED_EDGE('',*,*,#79,.F.) ;
#117=ORIENTED_EDGE('',*,*,#96,.T.) ;
#118=ORIENTED_EDGE('',*,*,#103,.T.) ;
#119=ORIENTED_EDGE('',*,*,#110,.T.) ;
#120=ORIENTED_EDGE('',*,*,#115,.T.) ;
#151=ORIENTED_EDGE('',*,*,#130,.T.) ;
#152=ORIENTED_EDGE('',*,*,#137,.T.) ;
#153=ORIENTED_EDGE('',*,*,#144,.T.) ;
#154=ORIENTED_EDGE('',*,*,#149,.T.) ;
#182=ORIENTED_EDGE('',*,*,#168,.F.) ;
#183=ORIENTED_EDGE('',*,*,#115,.F.) ;
#184=ORIENTED_EDGE('',*,*,#175,.T.) ;
#185=ORIENTED_EDGE('',*,*,#180,.F.) ;
#206=ORIENTED_EDGE('',*,*,#199,.T.) ;
#207=ORIENTED_EDGE('',*,*,#175,.F.) ;
#208=ORIENTED_EDGE('',*,*,#110,.F.) ;
#209=ORIENTED_EDGE('',*,*,#204,.T.) ;
#230=ORIENTED_EDGE('',*,*,#223,.T.) ;
#231=ORIENTED_EDGE('',*,*,#204,.F.) ;
#232=ORIENTED_EDGE('',*,*,#103,.F.) ;
#233=ORIENTED_EDGE('',*,*,#228,.T.) ;
#247=ORIENTED_EDGE('',*,*,#245,.T.) ;
#248=ORIENTED_EDGE('',*,*,#228,.F.) ;
#249=ORIENTED_EDGE('',*,*,#96,.F.) ;
#250=ORIENTED_EDGE('',*,*,#168,.T.) ;
#278=ORIENTED_EDGE('',*,*,#264,.F.) ;
#279=ORIENTED_EDGE('',*,*,#149,.F.) ;
#280=ORIENTED_EDGE('',*,*,#271,.T.) ;
#281=ORIENTED_EDGE('',*,*,#276,.F.) ;
#302=ORIENTED_EDGE('',*,*,#295,.T.) ;
#303=ORIENTED_EDGE('',*,*,#271,.F.) ;
#304=ORIENTED_EDGE('',*,*,#144,.F.) ;
#305=ORIENTED_EDGE('',*,*,#300,.T.) ;
#326=ORIENTED_EDGE('',*,*,#319,.T.) ;
#327=ORIENTED_EDGE('',*,*,#300,.F.) ;
#328=ORIENTED_EDGE('',*,*,#137,.F.) ;
#329=ORIENTED_EDGE('',*,*,#324,.T.) ;
#343=ORIENTED_EDGE('',*,*,#341,.T.) ;
#344=ORIENTED_EDGE('',*,*,#324,.F.) ;
#345=ORIENTED_EDGE('',*,*,#130,.F.) ;
#346=ORIENTED_EDGE('',*,*,#264,.T.) ;
#397=ORIENTED_EDGE('',*,*,#362,.F.) ;
#398=ORIENTED_EDGE('',*,*,#369,.T.) ;
#399=ORIENTED_EDGE('',*,*,#376,.T.) ;
#400=ORIENTED_EDGE('',*,*,#383,.T.) ;
#401=ORIENTED_EDGE('',*,*,#390,.T.) ;
#402=ORIENTED_EDGE('',*,*,#395,.T.) ;
#405=ORIENTED_EDGE('',*,*,#245,.F.) ;
#406=ORIENTED_EDGE('',*,*,#180,.T.) ;
#407=ORIENTED_EDGE('',*,*,#199,.F.) ;
#408=ORIENTED_EDGE('',*,*,#223,.F.) ;
#411=ORIENTED_EDGE('',*,*,#341,.F.) ;
#412=ORIENTED_EDGE('',*,*,#276,.T.) ;
#413=ORIENTED_EDGE('',*,*,#295,.F.) ;
#414=ORIENTED_EDGE('',*,*,#319,.F.) ;
#433=ORIENTED_EDGE('',*,*,#362,.T.) ;
#434=ORIENTED_EDGE('',*,*,#426,.F.) ;
#435=ORIENTED_EDGE('',*,*,#46,.T.) ;
#436=ORIENTED_EDGE('',*,*,#431,.T.) ;
#450=ORIENTED_EDGE('',*,*,#448,.F.) ;
#451=ORIENTED_EDGE('',*,*,#53,.T.) ;
#452=ORIENTED_EDGE('',*,*,#426,.T.) ;
#453=ORIENTED_EDGE('',*,*,#395,.F.) ;
#467=ORIENTED_EDGE('',*,*,#465,.F.) ;
#468=ORIENTED_EDGE('',*,*,#60,.T.) ;
#469=ORIENTED_EDGE('',*,*,#448,.T.) ;
#470=ORIENTED_EDGE('',*,*,#390,.F.) ;
#484=ORIENTED_EDGE('',*,*,#482,.F.) ;
#485=ORIENTED_EDGE('',*,*,#67,.T.) ;
#486=ORIENTED_EDGE('',*,*,#465,.T.) ;
#487=ORIENTED_EDGE('',*,*,#383,.F.) ;
#501=ORIENTED_EDGE('',*,*,#499,.F.) ;
#502=ORIENTED_EDGE('',*,*,#74,.T.) ;
#503=ORIENTED_EDGE('',*,*,#482,.T.) ;
#504=ORIENTED_EDGE('',*,*,#376,.F.) ;
#513=ORIENTED_EDGE('',*,*,#431,.F.) ;
#514=ORIENTED_EDGE('',*,*,#79,.T.) ;
#515=ORIENTED_EDGE('',*,*,#499,.T.) ;
#516=ORIENTED_EDGE('',*,*,#369,.F.) ;
#121=FACE_BOUND('',#116,.T.) ;
#155=FACE_BOUND('',#150,.T.) ;
#409=FACE_BOUND('',#404,.T.) ;
#415=FACE_BOUND('',#410,.T.) ;
#32=CLOSED_SHELL('Closed Shell',(#156,#187,#211,#235,#252,#283,#307,#331,#348,#416,#438,#455,#472,#489,#506,#518)) ;
#519=ADVANCED_BREP_SHAPE_REPRESENTATION('NONE',(#22),#17) ;
#156=ADVANCED_FACE('S3D-Kopie',(#87,#121,#155),#37,.F.) ;
#187=ADVANCED_FACE('S3D-Kopie',(#186),#161,.T.) ;
#211=ADVANCED_FACE('S3D-Kopie',(#210),#192,.F.) ;
#235=ADVANCED_FACE('S3D-Kopie',(#234),#216,.F.) ;
#252=ADVANCED_FACE('S3D-Kopie',(#251),#240,.F.) ;
#283=ADVANCED_FACE('S3D-Kopie',(#282),#257,.T.) ;
#307=ADVANCED_FACE('S3D-Kopie',(#306),#288,.F.) ;
#331=ADVANCED_FACE('S3D-Kopie',(#330),#312,.F.) ;
#348=ADVANCED_FACE('S3D-Kopie',(#347),#336,.F.) ;
#416=ADVANCED_FACE('S3D-Kopie',(#403,#409,#415),#353,.T.) ;
#438=ADVANCED_FACE('S3D-Kopie',(#437),#421,.F.) ;
#455=ADVANCED_FACE('S3D-Kopie',(#454),#443,.T.) ;
#472=ADVANCED_FACE('S3D-Kopie',(#471),#460,.T.) ;
#489=ADVANCED_FACE('S3D-Kopie',(#488),#477,.T.) ;
#506=ADVANCED_FACE('S3D-Kopie',(#505),#494,.T.) ;
#518=ADVANCED_FACE('S3D-Kopie',(#517),#511,.T.) ;
#4=APPLICATION_PROTOCOL_DEFINITION('international standard','automotive_design',2001,#1) ;
#22=MANIFOLD_SOLID_BREP('S3D-Kopie',#32) ;
#50=CIRCLE('generated circle',#49,10.91117065) ;
#64=CIRCLE('generated circle',#63,10.91117065) ;
#78=CIRCLE('generated circle',#77,2.8) ;
#107=CIRCLE('generated circle',#106,1.8) ;
#125=CIRCLE('generated circle',#124,9.91117065) ;
#141=CIRCLE('generated circle',#140,9.91117065) ;
#196=CIRCLE('generated circle',#195,1.8) ;
#292=CIRCLE('generated circle',#291,9.91117065) ;
#340=CIRCLE('generated circle',#339,9.91117065) ;
#366=CIRCLE('generated circle',#365,2.8) ;
#380=CIRCLE('generated circle',#379,10.91117065) ;
#394=CIRCLE('generated circle',#393,10.91117065) ;
#23=COLOUR_RGB('Colour',0.823529411765,0.823529411765,1.) ;
#192=CYLINDRICAL_SURFACE('generated cylinder',#191,1.8) ;
#288=CYLINDRICAL_SURFACE('generated cylinder',#287,9.91117065) ;
#336=CYLINDRICAL_SURFACE('generated cylinder',#335,9.91117065) ;
#443=CYLINDRICAL_SURFACE('generated cylinder',#442,10.91117065) ;
#477=CYLINDRICAL_SURFACE('generated cylinder',#476,10.91117065) ;
#511=CYLINDRICAL_SURFACE('generated cylinder',#510,2.8) ;
#46=EDGE_CURVE('',#43,#45,#41,.F.) ;
#53=EDGE_CURVE('',#52,#43,#50,.T.) ;
#60=EDGE_CURVE('',#59,#52,#57,.T.) ;
#67=EDGE_CURVE('',#66,#59,#64,.T.) ;
#74=EDGE_CURVE('',#73,#66,#71,.T.) ;
#79=EDGE_CURVE('',#45,#73,#78,.T.) ;
#96=EDGE_CURVE('',#93,#95,#91,.T.) ;
#103=EDGE_CURVE('',#95,#102,#100,.T.) ;
#110=EDGE_CURVE('',#102,#109,#107,.T.) ;
#115=EDGE_CURVE('',#109,#93,#114,.F.) ;
#130=EDGE_CURVE('',#127,#129,#125,.T.) ;
#137=EDGE_CURVE('',#129,#136,#134,.T.) ;
#144=EDGE_CURVE('',#136,#143,#141,.T.) ;
#149=EDGE_CURVE('',#143,#127,#148,.F.) ;
#168=EDGE_CURVE('',#93,#167,#165,.T.) ;
#175=EDGE_CURVE('',#109,#174,#172,.T.) ;
#180=EDGE_CURVE('',#167,#174,#179,.T.) ;
#199=EDGE_CURVE('',#198,#174,#196,.T.) ;
#204=EDGE_CURVE('',#102,#198,#203,.T.) ;
#223=EDGE_CURVE('',#222,#198,#220,.T.) ;
#228=EDGE_CURVE('',#95,#222,#227,.T.) ;
#245=EDGE_CURVE('',#167,#222,#244,.T.) ;
#264=EDGE_CURVE('',#127,#263,#261,.T.) ;
#271=EDGE_CURVE('',#143,#270,#268,.T.) ;
#276=EDGE_CURVE('',#263,#270,#275,.T.) ;
#295=EDGE_CURVE('',#294,#270,#292,.T.) ;
#300=EDGE_CURVE('',#136,#294,#299,.T.) ;
#319=EDGE_CURVE('',#318,#294,#316,.T.) ;
#324=EDGE_CURVE('',#129,#318,#323,.T.) ;
#341=EDGE_CURVE('',#263,#318,#340,.T.) ;
#362=EDGE_CURVE('',#359,#361,#357,.T.) ;
#369=EDGE_CURVE('',#359,#368,#366,.T.) ;
#376=EDGE_CURVE('',#368,#375,#373,.T.) ;
#383=EDGE_CURVE('',#375,#382,#380,.T.) ;
#390=EDGE_CURVE('',#382,#389,#387,.T.) ;
#395=EDGE_CURVE('',#389,#361,#394,.T.) ;
#426=EDGE_CURVE('',#43,#361,#425,.T.) ;
#431=EDGE_CURVE('',#45,#359,#430,.T.) ;
#448=EDGE_CURVE('',#52,#389,#447,.T.) ;
#465=EDGE_CURVE('',#59,#382,#464,.T.) ;
#482=EDGE_CURVE('',#66,#375,#481,.T.) ;
#499=EDGE_CURVE('',#73,#368,#498,.T.) ;
#80=EDGE_LOOP('',(#81,#82,#83,#84,#85,#86)) ;
#116=EDGE_LOOP('',(#117,#118,#119,#120)) ;
#150=EDGE_LOOP('',(#151,#152,#153,#154)) ;
#181=EDGE_LOOP('',(#182,#183,#184,#185)) ;
#205=EDGE_LOOP('',(#206,#207,#208,#209)) ;
#229=EDGE_LOOP('',(#230,#231,#232,#233)) ;
#246=EDGE_LOOP('',(#247,#248,#249,#250)) ;
#277=EDGE_LOOP('',(#278,#279,#280,#281)) ;
#301=EDGE_LOOP('',(#302,#303,#304,#305)) ;
#325=EDGE_LOOP('',(#326,#327,#328,#329)) ;
#342=EDGE_LOOP('',(#343,#344,#345,#346)) ;
#396=EDGE_LOOP('',(#397,#398,#399,#400,#401,#402)) ;
#404=EDGE_LOOP('',(#405,#406,#407,#408)) ;
#410=EDGE_LOOP('',(#411,#412,#413,#414)) ;
#432=EDGE_LOOP('',(#433,#434,#435,#436)) ;
#449=EDGE_LOOP('',(#450,#451,#452,#453)) ;
#466=EDGE_LOOP('',(#467,#468,#469,#470)) ;
#483=EDGE_LOOP('',(#484,#485,#486,#487)) ;
#500=EDGE_LOOP('',(#501,#502,#503,#504)) ;
#512=EDGE_LOOP('',(#513,#514,#515,#516)) ;
#87=FACE_OUTER_BOUND('',#80,.T.) ;
#186=FACE_OUTER_BOUND('',#181,.T.) ;
#210=FACE_OUTER_BOUND('',#205,.T.) ;
#234=FACE_OUTER_BOUND('',#229,.T.) ;
#251=FACE_OUTER_BOUND('',#246,.T.) ;
#282=FACE_OUTER_BOUND('',#277,.T.) ;
#306=FACE_OUTER_BOUND('',#301,.T.) ;
#330=FACE_OUTER_BOUND('',#325,.T.) ;
#347=FACE_OUTER_BOUND('',#342,.T.) ;
#403=FACE_OUTER_BOUND('',#396,.T.) ;
#437=FACE_OUTER_BOUND('',#432,.T.) ;
#454=FACE_OUTER_BOUND('',#449,.T.) ;
#471=FACE_OUTER_BOUND('',#466,.T.) ;
#488=FACE_OUTER_BOUND('',#483,.T.) ;
#505=FACE_OUTER_BOUND('',#500,.T.) ;
#517=FACE_OUTER_BOUND('',#512,.T.) ;
#41=LINE('Line',#38,#40) ;
#57=LINE('Line',#54,#56) ;
#71=LINE('Line',#68,#70) ;
#91=LINE('Line',#88,#90) ;
#100=LINE('Line',#97,#99) ;
#114=LINE('Line',#111,#113) ;
#134=LINE('Line',#131,#133) ;
#148=LINE('Line',#145,#147) ;
#165=LINE('Line',#162,#164) ;
#172=LINE('Line',#169,#171) ;
#179=LINE('Line',#176,#178) ;
#203=LINE('Line',#200,#202) ;
#220=LINE('Line',#217,#219) ;
#227=LINE('Line',#224,#226) ;
#244=LINE('Line',#241,#243) ;
#261=LINE('Line',#258,#260) ;
#268=LINE('Line',#265,#267) ;
#275=LINE('Line',#272,#274) ;
#299=LINE('Line',#296,#298) ;
#316=LINE('Line',#313,#315) ;
#323=LINE('Line',#320,#322) ;
#357=LINE('Line',#354,#356) ;
#373=LINE('Line',#370,#372) ;
#387=LINE('Line',#384,#386) ;
#425=LINE('Line',#422,#424) ;
#430=LINE('Line',#427,#429) ;
#447=LINE('Line',#444,#446) ;
#464=LINE('Line',#461,#463) ;
#481=LINE('Line',#478,#480) ;
#498=LINE('Line',#495,#497) ;
#37=PLANE('',#36) ;
#161=PLANE('',#160) ;
#216=PLANE('',#215) ;
#240=PLANE('',#239) ;
#257=PLANE('',#256) ;
#312=PLANE('',#311) ;
#353=PLANE('',#352) ;
#421=PLANE('',#420) ;
#460=PLANE('',#459) ;
#494=PLANE('',#493) ;
#14=PLANE_ANGLE_MEASURE_WITH_UNIT(PLANE_ANGLE_MEASURE(0.0174532925199),#13) ;
#9=PRODUCT_CATEGORY_RELATIONSHIP(' ',' ',#7,#8) ;
#6=PRODUCT_DEFINITION_FORMATION_WITH_SPECIFIED_SOURCE('1806320000',' ',#5,.BOUGHT.) ;
#21=SHAPE_DEFINITION_REPRESENTATION(#11,#20) ;
#43=VERTEX_POINT('',#42) ;
#45=VERTEX_POINT('',#44) ;
#52=VERTEX_POINT('',#51) ;
#59=VERTEX_POINT('',#58) ;
#66=VERTEX_POINT('',#65) ;
#73=VERTEX_POINT('',#72) ;
#93=VERTEX_POINT('',#92) ;
#95=VERTEX_POINT('',#94) ;
#102=VERTEX_POINT('',#101) ;
#109=VERTEX_POINT('',#108) ;
#127=VERTEX_POINT('',#126) ;
#129=VERTEX_POINT('',#128) ;
#136=VERTEX_POINT('',#135) ;
#143=VERTEX_POINT('',#142) ;
#167=VERTEX_POINT('',#166) ;
#174=VERTEX_POINT('',#173) ;
#198=VERTEX_POINT('',#197) ;
#222=VERTEX_POINT('',#221) ;
#263=VERTEX_POINT('',#262) ;
#270=VERTEX_POINT('',#269) ;
#294=VERTEX_POINT('',#293) ;
#318=VERTEX_POINT('',#317) ;
#359=VERTEX_POINT('',#358) ;
#361=VERTEX_POINT('',#360) ;
#368=VERTEX_POINT('',#367) ;
#375=VERTEX_POINT('',#374) ;
#382=VERTEX_POINT('',#381) ;
#389=VERTEX_POINT('',#388) ;
#12=(LENGTH_UNIT()NAMED_UNIT(*)SI_UNIT(.MILLI.,.METRE.)) ;
#13=(NAMED_UNIT(*)PLANE_ANGLE_UNIT()SI_UNIT($,.RADIAN.)) ;
#15=(NAMED_UNIT(*)SI_UNIT($,.STERADIAN.)SOLID_ANGLE_UNIT()) ;
#17=(GEOMETRIC_REPRESENTATION_CONTEXT(3)GLOBAL_UNCERTAINTY_ASSIGNED_CONTEXT((#16))GLOBAL_UNIT_ASSIGNED_CONTEXT((#12,#13,#15))REPRESENTATION_CONTEXT(' ',' ')) ;
ENDSEC;
END-ISO-10303-21;
