ISO-10303-21;
HEADER;
FILE_DESCRIPTION(('CATIA V5R24 STEP','CAx-IF Rec.Pracs.--- Model Styling and Organization---1.2---2011-12-15'),'2;1');

FILE_NAME ('D1445953_0_0446700000_0446700000.stp','2016-07-08T06:28:33+00:00',('none'),('Weidmueller'),'CATIA Version 5-6 Release 2014 SP4','CATIA V5 STEP AP214','none');

FILE_SCHEMA(('AUTOMOTIVE_DESIGN { 1 0 10303 214 1 1 1 1 }'));

ENDSEC;
DATA;
#5=PRODUCT('v5-standard_part','','',(#2)) ;
#2=PRODUCT_CONTEXT(' ',#1,'mechanical') ;
#1=APPLICATION_CONTEXT('automotive design') ;
#10=PRODUCT_DEFINITION('',' ',#6,#3) ;
#3=PRODUCT_DEFINITION_CONTEXT('part definition',#1,' ') ;
#11=PRODUCT_DEFINITION_SHAPE(' ',' ',#10) ;
#462=MECHANICAL_DESIGN_GEOMETRIC_PRESENTATION_REPRESENTATION(' ',(#46),#16) ;
#19=SHAPE_REPRESENTATION(' ',(#18),#16) ;
#18=AXIS2_PLACEMENT_3D(' ',#17,$,$) ;
#24=AXIS2_PLACEMENT_3D('Plane Axis2P3D',#21,#22,#23) ;
#31=AXIS2_PLACEMENT_3D('Plane Axis2P3D',#28,#29,#30) ;
#36=AXIS2_PLACEMENT_3D('Plane Axis2P3D',#33,#34,#35) ;
#52=AXIS2_PLACEMENT_3D('Plane Axis2P3D',#49,#50,#51) ;
#92=AXIS2_PLACEMENT_3D('Cylinder Axis2P3D',#89,#90,#91) ;
#96=AXIS2_PLACEMENT_3D('Circle Axis2P3D',#94,#95,$) ;
#110=AXIS2_PLACEMENT_3D('Circle Axis2P3D',#108,#109,$) ;
#123=AXIS2_PLACEMENT_3D('Cylinder Axis2P3D',#120,#121,#122) ;
#127=AXIS2_PLACEMENT_3D('Circle Axis2P3D',#125,#126,$) ;
#141=AXIS2_PLACEMENT_3D('Circle Axis2P3D',#139,#140,$) ;
#154=AXIS2_PLACEMENT_3D('Cylinder Axis2P3D',#151,#152,#153) ;
#158=AXIS2_PLACEMENT_3D('Circle Axis2P3D',#156,#157,$) ;
#172=AXIS2_PLACEMENT_3D('Circle Axis2P3D',#170,#171,$) ;
#185=AXIS2_PLACEMENT_3D('Cylinder Axis2P3D',#182,#183,#184) ;
#189=AXIS2_PLACEMENT_3D('Circle Axis2P3D',#187,#188,$) ;
#203=AXIS2_PLACEMENT_3D('Circle Axis2P3D',#201,#202,$) ;
#216=AXIS2_PLACEMENT_3D('Cylinder Axis2P3D',#213,#214,#215) ;
#220=AXIS2_PLACEMENT_3D('Circle Axis2P3D',#218,#219,$) ;
#234=AXIS2_PLACEMENT_3D('Circle Axis2P3D',#232,#233,$) ;
#247=AXIS2_PLACEMENT_3D('Cylinder Axis2P3D',#244,#245,#246) ;
#251=AXIS2_PLACEMENT_3D('Circle Axis2P3D',#249,#250,$) ;
#265=AXIS2_PLACEMENT_3D('Circle Axis2P3D',#263,#264,$) ;
#278=AXIS2_PLACEMENT_3D('Cylinder Axis2P3D',#275,#276,#277) ;
#282=AXIS2_PLACEMENT_3D('Circle Axis2P3D',#280,#281,$) ;
#296=AXIS2_PLACEMENT_3D('Circle Axis2P3D',#294,#295,$) ;
#309=AXIS2_PLACEMENT_3D('Plane Axis2P3D',#306,#307,#308) ;
#340=AXIS2_PLACEMENT_3D('Cylinder Axis2P3D',#337,#338,#339) ;
#344=AXIS2_PLACEMENT_3D('Circle Axis2P3D',#342,#343,$) ;
#349=AXIS2_PLACEMENT_3D('Circle Axis2P3D',#347,#348,$) ;
#362=AXIS2_PLACEMENT_3D('Cylinder Axis2P3D',#359,#360,#361) ;
#366=AXIS2_PLACEMENT_3D('Circle Axis2P3D',#364,#365,$) ;
#382=AXIS2_PLACEMENT_3D('Circle Axis2P3D',#380,#381,$) ;
#401=AXIS2_PLACEMENT_3D('Circle Axis2P3D',#399,#400,$) ;
#406=AXIS2_PLACEMENT_3D('Circle Axis2P3D',#404,#405,$) ;
#419=AXIS2_PLACEMENT_3D('Plane Axis2P3D',#416,#417,#418) ;
#441=AXIS2_PLACEMENT_3D('Plane Axis2P3D',#438,#439,#440) ;
#17=CARTESIAN_POINT(' ',(0.,0.,0.)) ;
#21=CARTESIAN_POINT('Axis2P3D Location',(0.,0.,0.)) ;
#28=CARTESIAN_POINT('Axis2P3D Location',(0.,0.,0.)) ;
#33=CARTESIAN_POINT('Axis2P3D Location',(0.,0.,0.)) ;
#49=CARTESIAN_POINT('Axis2P3D Location',(2.49710105896,5.,1.)) ;
#54=CARTESIAN_POINT('Line Origine',(2.49710105896,5.,0.5)) ;
#58=CARTESIAN_POINT('Vertex',(2.49710105896,5.,1.)) ;
#60=CARTESIAN_POINT('Vertex',(2.49710105896,5.,4.4408920985E-016)) ;
#63=CARTESIAN_POINT('Line Origine',(5.49710105896,5.,1.)) ;
#67=CARTESIAN_POINT('Vertex',(8.49710105896,5.,1.)) ;
#70=CARTESIAN_POINT('Line Origine',(8.49710105896,5.,0.5)) ;
#74=CARTESIAN_POINT('Vertex',(8.49710105896,5.,1.17887728934E-015)) ;
#77=CARTESIAN_POINT('Line Origine',(5.49710105896,5.,7.77156117238E-016)) ;
#89=CARTESIAN_POINT('Axis2P3D Location',(8.49710105896,2.5,0.5)) ;
#94=CARTESIAN_POINT('Axis2P3D Location',(8.49710105896,2.5,1.)) ;
#98=CARTESIAN_POINT('Vertex',(10.997101059,2.5,1.)) ;
#101=CARTESIAN_POINT('Line Origine',(10.997101059,2.5,0.5)) ;
#105=CARTESIAN_POINT('Vertex',(10.997101059,2.5,1.63842932934E-015)) ;
#108=CARTESIAN_POINT('Axis2P3D Location',(8.49710105896,2.5,1.33226762955E-015)) ;
#120=CARTESIAN_POINT('Axis2P3D Location',(2.49710105896,2.5,0.5)) ;
#125=CARTESIAN_POINT('Axis2P3D Location',(2.49710105896,2.5,1.)) ;
#129=CARTESIAN_POINT('Vertex',(10.7374389396,0.415094339623,1.)) ;
#132=CARTESIAN_POINT('Line Origine',(10.7374389396,0.415094339623,0.5)) ;
#136=CARTESIAN_POINT('Vertex',(10.7374389396,0.415094339623,1.45323955079E-015)) ;
#139=CARTESIAN_POINT('Axis2P3D Location',(2.49710105896,2.5,4.4408920985E-016)) ;
#151=CARTESIAN_POINT('Axis2P3D Location',(10.2042406062,0.55,0.5)) ;
#156=CARTESIAN_POINT('Axis2P3D Location',(10.2042406062,0.55,1.)) ;
#160=CARTESIAN_POINT('Vertex',(9.67104227271,0.684905660377,1.)) ;
#163=CARTESIAN_POINT('Line Origine',(9.67104227271,0.684905660377,0.5)) ;
#167=CARTESIAN_POINT('Vertex',(9.67104227271,0.684905660377,1.26696966631E-015)) ;
#170=CARTESIAN_POINT('Axis2P3D Location',(10.2042406062,0.55,1.33226762955E-015)) ;
#182=CARTESIAN_POINT('Axis2P3D Location',(2.49710105896,2.5,0.5)) ;
#187=CARTESIAN_POINT('Axis2P3D Location',(2.49710105896,2.5,1.)) ;
#191=CARTESIAN_POINT('Vertex',(9.89710105896,2.5,1.)) ;
#194=CARTESIAN_POINT('Line Origine',(9.89710105896,2.5,0.5)) ;
#198=CARTESIAN_POINT('Vertex',(9.89710105896,2.5,1.35032784122E-015)) ;
#201=CARTESIAN_POINT('Axis2P3D Location',(2.49710105896,2.5,4.4408920985E-016)) ;
#213=CARTESIAN_POINT('Axis2P3D Location',(8.49710105896,2.5,0.5)) ;
#218=CARTESIAN_POINT('Axis2P3D Location',(8.49710105896,2.5,1.)) ;
#222=CARTESIAN_POINT('Vertex',(7.09710105896,2.5,1.)) ;
#225=CARTESIAN_POINT('Line Origine',(7.09710105896,2.5,0.5)) ;
#229=CARTESIAN_POINT('Vertex',(7.09710105896,2.5,1.16081707767E-015)) ;
#232=CARTESIAN_POINT('Axis2P3D Location',(8.49710105896,2.5,1.33226762955E-015)) ;
#244=CARTESIAN_POINT('Axis2P3D Location',(2.49710105896,2.5,0.5)) ;
#249=CARTESIAN_POINT('Axis2P3D Location',(2.49710105896,2.5,1.)) ;
#253=CARTESIAN_POINT('Vertex',(6.67877403624,0.583333333333,1.)) ;
#256=CARTESIAN_POINT('Line Origine',(6.67877403624,0.583333333333,0.5)) ;
#260=CARTESIAN_POINT('Vertex',(6.67877403624,0.583333333333,9.5619645252E-016)) ;
#263=CARTESIAN_POINT('Axis2P3D Location',(2.49710105896,2.5,4.4408920985E-016)) ;
#275=CARTESIAN_POINT('Axis2P3D Location',(5.76971469335,1.,0.5)) ;
#280=CARTESIAN_POINT('Axis2P3D Location',(5.76971469335,1.,1.)) ;
#284=CARTESIAN_POINT('Vertex',(5.76971469335,-4.4408920985E-016,1.)) ;
#287=CARTESIAN_POINT('Line Origine',(5.76971469335,-4.4408920985E-016,0.5)) ;
#291=CARTESIAN_POINT('Vertex',(5.76971469335,-4.4408920985E-016,8.881784197E-016)) ;
#294=CARTESIAN_POINT('Axis2P3D Location',(5.76971469335,1.,8.881784197E-016)) ;
#306=CARTESIAN_POINT('Axis2P3D Location',(2.49710105896,0.,1.)) ;
#311=CARTESIAN_POINT('Line Origine',(4.13340787616,-2.22044604925E-016,1.)) ;
#315=CARTESIAN_POINT('Vertex',(2.49710105896,0.,1.)) ;
#318=CARTESIAN_POINT('Line Origine',(2.49710105896,0.,0.5)) ;
#322=CARTESIAN_POINT('Vertex',(2.49710105896,0.,4.4408920985E-016)) ;
#325=CARTESIAN_POINT('Line Origine',(4.13340787616,-2.22044604925E-016,6.66133814775E-016)) ;
#337=CARTESIAN_POINT('Axis2P3D Location',(2.49710105896,2.5,0.5)) ;
#342=CARTESIAN_POINT('Axis2P3D Location',(2.49710105896,2.5,1.)) ;
#347=CARTESIAN_POINT('Axis2P3D Location',(2.49710105896,2.5,4.4408920985E-016)) ;
#359=CARTESIAN_POINT('Axis2P3D Location',(2.49710105896,2.5,0.5)) ;
#364=CARTESIAN_POINT('Axis2P3D Location',(2.49710105896,2.5,4.4408920985E-016)) ;
#368=CARTESIAN_POINT('Vertex',(3.89710105896,2.5,6.15539761731E-016)) ;
#370=CARTESIAN_POINT('Vertex',(1.09710105896,2.5,2.72638657969E-016)) ;
#373=CARTESIAN_POINT('Line Origine',(1.09710105896,2.5,0.5)) ;
#377=CARTESIAN_POINT('Vertex',(1.09710105896,2.5,1.)) ;
#380=CARTESIAN_POINT('Axis2P3D Location',(2.49710105896,2.5,1.)) ;
#384=CARTESIAN_POINT('Vertex',(3.89710105896,2.5,1.)) ;
#387=CARTESIAN_POINT('Line Origine',(3.89710105896,2.5,0.5)) ;
#399=CARTESIAN_POINT('Axis2P3D Location',(2.49710105896,2.5,4.4408920985E-016)) ;
#404=CARTESIAN_POINT('Axis2P3D Location',(2.49710105896,2.5,1.)) ;
#416=CARTESIAN_POINT('Axis2P3D Location',(2.49710105896,2.5,1.)) ;
#438=CARTESIAN_POINT('Axis2P3D Location',(2.49710105896,2.5,4.4408920985E-016)) ;
#22=DIRECTION('Axis2P3D Direction',(0.,0.,1.)) ;
#23=DIRECTION('Axis2P3D XDirection',(1.,0.,0.)) ;
#29=DIRECTION('Axis2P3D Direction',(1.,0.,0.)) ;
#30=DIRECTION('Axis2P3D XDirection',(0.,1.,0.)) ;
#34=DIRECTION('Axis2P3D Direction',(0.,1.,0.)) ;
#35=DIRECTION('Axis2P3D XDirection',(0.,0.,1.)) ;
#50=DIRECTION('Axis2P3D Direction',(7.40148683083E-017,1.,9.06420715631E-033)) ;
#51=DIRECTION('Axis2P3D XDirection',(1.,-7.40148683083E-017,1.22464679915E-016)) ;
#55=DIRECTION('Vector Direction',(0.,0.,-1.)) ;
#64=DIRECTION('Vector Direction',(1.,0.,1.11022302463E-016)) ;
#71=DIRECTION('Vector Direction',(0.,0.,-1.)) ;
#78=DIRECTION('Vector Direction',(1.,0.,1.11022302463E-016)) ;
#90=DIRECTION('Axis2P3D Direction',(1.22464679915E-016,0.,-1.)) ;
#91=DIRECTION('Axis2P3D XDirection',(-5.27195124432E-013,1.,-6.45627821662E-029)) ;
#95=DIRECTION('Axis2P3D Direction',(1.22464679915E-016,0.,-1.)) ;
#102=DIRECTION('Vector Direction',(0.,0.,-1.)) ;
#109=DIRECTION('Axis2P3D Direction',(1.22464679915E-016,0.,-1.)) ;
#121=DIRECTION('Axis2P3D Direction',(1.22464679915E-016,0.,-1.)) ;
#122=DIRECTION('Axis2P3D XDirection',(1.,1.22464679915E-016,1.22464679915E-016)) ;
#126=DIRECTION('Axis2P3D Direction',(1.22464679915E-016,0.,-1.)) ;
#133=DIRECTION('Vector Direction',(0.,0.,-1.)) ;
#140=DIRECTION('Axis2P3D Direction',(1.22464679915E-016,0.,-1.)) ;
#152=DIRECTION('Axis2P3D Direction',(1.22464679915E-016,0.,-1.)) ;
#153=DIRECTION('Axis2P3D XDirection',(0.969451515371,-0.245283018868,1.18723569523E-016)) ;
#157=DIRECTION('Axis2P3D Direction',(1.22464679915E-016,0.,-1.)) ;
#164=DIRECTION('Vector Direction',(0.,0.,-1.)) ;
#171=DIRECTION('Axis2P3D Direction',(1.22464679915E-016,0.,-1.)) ;
#183=DIRECTION('Axis2P3D Direction',(1.22464679915E-016,0.,-1.)) ;
#184=DIRECTION('Axis2P3D XDirection',(1.,5.66553889765E-016,1.22464679915E-016)) ;
#188=DIRECTION('Axis2P3D Direction',(1.22464679915E-016,0.,-1.)) ;
#195=DIRECTION('Vector Direction',(0.,0.,-1.)) ;
#202=DIRECTION('Axis2P3D Direction',(1.22464679915E-016,0.,-1.)) ;
#214=DIRECTION('Axis2P3D Direction',(1.22464679915E-016,0.,-1.)) ;
#215=DIRECTION('Axis2P3D XDirection',(-1.,-1.13310777953E-015,-1.22464679915E-016)) ;
#219=DIRECTION('Axis2P3D Direction',(1.22464679915E-016,0.,-1.)) ;
#226=DIRECTION('Vector Direction',(0.,0.,-1.)) ;
#233=DIRECTION('Axis2P3D Direction',(1.22464679915E-016,0.,-1.)) ;
#245=DIRECTION('Axis2P3D Direction',(1.22464679915E-016,0.,-1.)) ;
#246=DIRECTION('Axis2P3D XDirection',(1.,1.22464679915E-016,1.22464679915E-016)) ;
#250=DIRECTION('Axis2P3D Direction',(1.22464679915E-016,0.,-1.)) ;
#257=DIRECTION('Vector Direction',(0.,0.,-1.)) ;
#264=DIRECTION('Axis2P3D Direction',(1.22464679915E-016,0.,-1.)) ;
#276=DIRECTION('Axis2P3D Direction',(1.22464679915E-016,0.,-1.)) ;
#277=DIRECTION('Axis2P3D XDirection',(0.909059342886,-0.416666666667,1.1132766145E-016)) ;
#281=DIRECTION('Axis2P3D Direction',(1.22464679915E-016,0.,-1.)) ;
#288=DIRECTION('Vector Direction',(0.,0.,-1.)) ;
#295=DIRECTION('Axis2P3D Direction',(1.22464679915E-016,0.,-1.)) ;
#307=DIRECTION('Axis2P3D Direction',(1.35698637072E-016,1.,1.66182901539E-032)) ;
#308=DIRECTION('Axis2P3D XDirection',(1.,-1.35698637072E-016,1.22464679915E-016)) ;
#312=DIRECTION('Vector Direction',(1.,-1.35698637072E-016,1.35698637072E-016)) ;
#319=DIRECTION('Vector Direction',(0.,0.,-1.)) ;
#326=DIRECTION('Vector Direction',(1.,-1.35698637072E-016,1.35698637072E-016)) ;
#338=DIRECTION('Axis2P3D Direction',(1.22464679915E-016,0.,-1.)) ;
#339=DIRECTION('Axis2P3D XDirection',(5.26873499902E-013,-1.,6.45233945211E-029)) ;
#343=DIRECTION('Axis2P3D Direction',(1.22464679915E-016,0.,-1.)) ;
#348=DIRECTION('Axis2P3D Direction',(1.22464679915E-016,0.,-1.)) ;
#360=DIRECTION('Axis2P3D Direction',(1.22464679915E-016,0.,-1.)) ;
#361=DIRECTION('Axis2P3D XDirection',(-1.,0.,-1.22464679915E-016)) ;
#365=DIRECTION('Axis2P3D Direction',(1.22464679915E-016,0.,-1.)) ;
#374=DIRECTION('Vector Direction',(0.,0.,-1.)) ;
#381=DIRECTION('Axis2P3D Direction',(1.22464679915E-016,0.,-1.)) ;
#388=DIRECTION('Vector Direction',(0.,0.,-1.)) ;
#400=DIRECTION('Axis2P3D Direction',(1.22464679915E-016,0.,-1.)) ;
#405=DIRECTION('Axis2P3D Direction',(1.22464679915E-016,0.,-1.)) ;
#417=DIRECTION('Axis2P3D Direction',(1.22464679915E-016,0.,-1.)) ;
#418=DIRECTION('Axis2P3D XDirection',(-1.,0.,-1.22464679915E-016)) ;
#439=DIRECTION('Axis2P3D Direction',(1.22464679915E-016,0.,-1.)) ;
#440=DIRECTION('Axis2P3D XDirection',(-1.,0.,-1.22464679915E-016)) ;
#47=PRESENTATION_LAYER_ASSIGNMENT('1',' ',(#38)) ;
#8=PRODUCT_RELATED_PRODUCT_CATEGORY('part',$,(#5)) ;
#7=PRODUCT_CATEGORY('part','specification') ;
#46=STYLED_ITEM(' ',(#45),#38) ;
#45=PRESENTATION_STYLE_ASSIGNMENT((#44)) ;
#44=SURFACE_STYLE_USAGE(.BOTH.,#43) ;
#43=SURFACE_SIDE_STYLE(' ',(#42)) ;
#42=SURFACE_STYLE_FILL_AREA(#41) ;
#41=FILL_AREA_STYLE(' ',(#40)) ;
#40=FILL_AREA_STYLE_COLOUR(' ',#39) ;
#56=VECTOR('Line Direction',#55,1.) ;
#65=VECTOR('Line Direction',#64,1.) ;
#72=VECTOR('Line Direction',#71,1.) ;
#79=VECTOR('Line Direction',#78,1.) ;
#103=VECTOR('Line Direction',#102,1.) ;
#134=VECTOR('Line Direction',#133,1.) ;
#165=VECTOR('Line Direction',#164,1.) ;
#196=VECTOR('Line Direction',#195,1.) ;
#227=VECTOR('Line Direction',#226,1.) ;
#258=VECTOR('Line Direction',#257,1.) ;
#289=VECTOR('Line Direction',#288,1.) ;
#313=VECTOR('Line Direction',#312,1.) ;
#320=VECTOR('Line Direction',#319,1.) ;
#327=VECTOR('Line Direction',#326,1.) ;
#375=VECTOR('Line Direction',#374,1.) ;
#389=VECTOR('Line Direction',#388,1.) ;
#15=UNCERTAINTY_MEASURE_WITH_UNIT(LENGTH_MEASURE(0.005),#12,'distance_accuracy_value','CONFUSED CURVE UNCERTAINTY') ;
#461=SHAPE_REPRESENTATION_RELATIONSHIP(' ',' ',#19,#460) ;
#83=ORIENTED_EDGE('',*,*,#62,.F.) ;
#84=ORIENTED_EDGE('',*,*,#69,.T.) ;
#85=ORIENTED_EDGE('',*,*,#76,.T.) ;
#86=ORIENTED_EDGE('',*,*,#81,.F.) ;
#114=ORIENTED_EDGE('',*,*,#76,.F.) ;
#115=ORIENTED_EDGE('',*,*,#100,.T.) ;
#116=ORIENTED_EDGE('',*,*,#107,.T.) ;
#117=ORIENTED_EDGE('',*,*,#112,.F.) ;
#145=ORIENTED_EDGE('',*,*,#107,.F.) ;
#146=ORIENTED_EDGE('',*,*,#131,.T.) ;
#147=ORIENTED_EDGE('',*,*,#138,.T.) ;
#148=ORIENTED_EDGE('',*,*,#143,.F.) ;
#176=ORIENTED_EDGE('',*,*,#138,.F.) ;
#177=ORIENTED_EDGE('',*,*,#162,.T.) ;
#178=ORIENTED_EDGE('',*,*,#169,.T.) ;
#179=ORIENTED_EDGE('',*,*,#174,.F.) ;
#207=ORIENTED_EDGE('',*,*,#169,.F.) ;
#208=ORIENTED_EDGE('',*,*,#193,.T.) ;
#209=ORIENTED_EDGE('',*,*,#200,.T.) ;
#210=ORIENTED_EDGE('',*,*,#205,.F.) ;
#238=ORIENTED_EDGE('',*,*,#200,.F.) ;
#239=ORIENTED_EDGE('',*,*,#224,.T.) ;
#240=ORIENTED_EDGE('',*,*,#231,.T.) ;
#241=ORIENTED_EDGE('',*,*,#236,.F.) ;
#269=ORIENTED_EDGE('',*,*,#231,.F.) ;
#270=ORIENTED_EDGE('',*,*,#255,.T.) ;
#271=ORIENTED_EDGE('',*,*,#262,.T.) ;
#272=ORIENTED_EDGE('',*,*,#267,.F.) ;
#300=ORIENTED_EDGE('',*,*,#262,.F.) ;
#301=ORIENTED_EDGE('',*,*,#286,.T.) ;
#302=ORIENTED_EDGE('',*,*,#293,.T.) ;
#303=ORIENTED_EDGE('',*,*,#298,.F.) ;
#331=ORIENTED_EDGE('',*,*,#293,.F.) ;
#332=ORIENTED_EDGE('',*,*,#317,.T.) ;
#333=ORIENTED_EDGE('',*,*,#324,.T.) ;
#334=ORIENTED_EDGE('',*,*,#329,.F.) ;
#353=ORIENTED_EDGE('',*,*,#324,.F.) ;
#354=ORIENTED_EDGE('',*,*,#346,.T.) ;
#355=ORIENTED_EDGE('',*,*,#62,.T.) ;
#356=ORIENTED_EDGE('',*,*,#351,.F.) ;
#393=ORIENTED_EDGE('',*,*,#372,.T.) ;
#394=ORIENTED_EDGE('',*,*,#379,.F.) ;
#395=ORIENTED_EDGE('',*,*,#386,.F.) ;
#396=ORIENTED_EDGE('',*,*,#391,.T.) ;
#410=ORIENTED_EDGE('',*,*,#403,.T.) ;
#411=ORIENTED_EDGE('',*,*,#391,.F.) ;
#412=ORIENTED_EDGE('',*,*,#408,.F.) ;
#413=ORIENTED_EDGE('',*,*,#379,.T.) ;
#422=ORIENTED_EDGE('',*,*,#346,.F.) ;
#423=ORIENTED_EDGE('',*,*,#317,.F.) ;
#424=ORIENTED_EDGE('',*,*,#286,.F.) ;
#425=ORIENTED_EDGE('',*,*,#255,.F.) ;
#426=ORIENTED_EDGE('',*,*,#224,.F.) ;
#427=ORIENTED_EDGE('',*,*,#193,.F.) ;
#428=ORIENTED_EDGE('',*,*,#162,.F.) ;
#429=ORIENTED_EDGE('',*,*,#131,.F.) ;
#430=ORIENTED_EDGE('',*,*,#100,.F.) ;
#431=ORIENTED_EDGE('',*,*,#69,.F.) ;
#434=ORIENTED_EDGE('',*,*,#408,.T.) ;
#435=ORIENTED_EDGE('',*,*,#386,.T.) ;
#444=ORIENTED_EDGE('',*,*,#81,.T.) ;
#445=ORIENTED_EDGE('',*,*,#112,.T.) ;
#446=ORIENTED_EDGE('',*,*,#143,.T.) ;
#447=ORIENTED_EDGE('',*,*,#174,.T.) ;
#448=ORIENTED_EDGE('',*,*,#205,.T.) ;
#449=ORIENTED_EDGE('',*,*,#236,.T.) ;
#450=ORIENTED_EDGE('',*,*,#267,.T.) ;
#451=ORIENTED_EDGE('',*,*,#298,.T.) ;
#452=ORIENTED_EDGE('',*,*,#329,.T.) ;
#453=ORIENTED_EDGE('',*,*,#351,.T.) ;
#456=ORIENTED_EDGE('',*,*,#372,.F.) ;
#457=ORIENTED_EDGE('',*,*,#403,.F.) ;
#436=FACE_BOUND('',#433,.T.) ;
#458=FACE_BOUND('',#455,.T.) ;
#48=CLOSED_SHELL('Closed Shell',(#88,#119,#150,#181,#212,#243,#274,#305,#336,#358,#398,#415,#437,#459)) ;
#460=ADVANCED_BREP_SHAPE_REPRESENTATION('NONE',(#38),#16) ;
#88=ADVANCED_FACE('Koerper.2',(#87),#53,.T.) ;
#119=ADVANCED_FACE('Koerper.2',(#118),#93,.T.) ;
#150=ADVANCED_FACE('Koerper.2',(#149),#124,.T.) ;
#181=ADVANCED_FACE('Koerper.2',(#180),#155,.T.) ;
#212=ADVANCED_FACE('Koerper.2',(#211),#186,.F.) ;
#243=ADVANCED_FACE('Koerper.2',(#242),#217,.F.) ;
#274=ADVANCED_FACE('Koerper.2',(#273),#248,.T.) ;
#305=ADVANCED_FACE('Koerper.2',(#304),#279,.T.) ;
#336=ADVANCED_FACE('Koerper.2',(#335),#310,.F.) ;
#358=ADVANCED_FACE('Koerper.2',(#357),#341,.T.) ;
#398=ADVANCED_FACE('Koerper.2',(#397),#363,.F.) ;
#415=ADVANCED_FACE('Koerper.2',(#414),#363,.F.) ;
#437=ADVANCED_FACE('Koerper.2',(#432,#436),#420,.F.) ;
#459=ADVANCED_FACE('Koerper.2',(#454,#458),#442,.T.) ;
#4=APPLICATION_PROTOCOL_DEFINITION('international standard','automotive_design',2001,#1) ;
#38=MANIFOLD_SOLID_BREP('Koerper.2',#48) ;
#97=CIRCLE('generated circle',#96,2.5) ;
#111=CIRCLE('generated circle',#110,2.5) ;
#128=CIRCLE('generated circle',#127,8.5) ;
#142=CIRCLE('generated circle',#141,8.5) ;
#159=CIRCLE('generated circle',#158,0.55) ;
#173=CIRCLE('generated circle',#172,0.55) ;
#190=CIRCLE('generated circle',#189,7.4) ;
#204=CIRCLE('generated circle',#203,7.4) ;
#221=CIRCLE('generated circle',#220,1.4) ;
#235=CIRCLE('generated circle',#234,1.4) ;
#252=CIRCLE('generated circle',#251,4.6) ;
#266=CIRCLE('generated circle',#265,4.6) ;
#283=CIRCLE('generated circle',#282,1.) ;
#297=CIRCLE('generated circle',#296,1.) ;
#345=CIRCLE('generated circle',#344,2.5) ;
#350=CIRCLE('generated circle',#349,2.5) ;
#367=CIRCLE('generated circle',#366,1.4) ;
#383=CIRCLE('generated circle',#382,1.4) ;
#402=CIRCLE('generated circle',#401,1.4) ;
#407=CIRCLE('generated circle',#406,1.4) ;
#39=COLOUR_RGB('Colour',0.823529411765,0.823529411765,1.) ;
#26=CONSTRUCTIVE_GEOMETRY_REPRESENTATION('supplemental geometry',(#25,#32,#37),#16) ;
#27=CONSTRUCTIVE_GEOMETRY_REPRESENTATION_RELATIONSHIP('supplemental geometry','',#19,#26) ;
#93=CYLINDRICAL_SURFACE('generated cylinder',#92,2.5) ;
#124=CYLINDRICAL_SURFACE('generated cylinder',#123,8.5) ;
#155=CYLINDRICAL_SURFACE('generated cylinder',#154,0.55) ;
#186=CYLINDRICAL_SURFACE('generated cylinder',#185,7.4) ;
#217=CYLINDRICAL_SURFACE('generated cylinder',#216,1.4) ;
#248=CYLINDRICAL_SURFACE('generated cylinder',#247,4.6) ;
#279=CYLINDRICAL_SURFACE('generated cylinder',#278,1.) ;
#341=CYLINDRICAL_SURFACE('generated cylinder',#340,2.5) ;
#363=CYLINDRICAL_SURFACE('generated cylinder',#362,1.4) ;
#62=EDGE_CURVE('',#59,#61,#57,.T.) ;
#69=EDGE_CURVE('',#59,#68,#66,.T.) ;
#76=EDGE_CURVE('',#68,#75,#73,.T.) ;
#81=EDGE_CURVE('',#61,#75,#80,.T.) ;
#100=EDGE_CURVE('',#68,#99,#97,.T.) ;
#107=EDGE_CURVE('',#99,#106,#104,.T.) ;
#112=EDGE_CURVE('',#75,#106,#111,.T.) ;
#131=EDGE_CURVE('',#99,#130,#128,.T.) ;
#138=EDGE_CURVE('',#130,#137,#135,.T.) ;
#143=EDGE_CURVE('',#106,#137,#142,.T.) ;
#162=EDGE_CURVE('',#130,#161,#159,.T.) ;
#169=EDGE_CURVE('',#161,#168,#166,.T.) ;
#174=EDGE_CURVE('',#137,#168,#173,.T.) ;
#193=EDGE_CURVE('',#161,#192,#190,.F.) ;
#200=EDGE_CURVE('',#192,#199,#197,.T.) ;
#205=EDGE_CURVE('',#168,#199,#204,.F.) ;
#224=EDGE_CURVE('',#192,#223,#221,.F.) ;
#231=EDGE_CURVE('',#223,#230,#228,.T.) ;
#236=EDGE_CURVE('',#199,#230,#235,.F.) ;
#255=EDGE_CURVE('',#223,#254,#252,.T.) ;
#262=EDGE_CURVE('',#254,#261,#259,.T.) ;
#267=EDGE_CURVE('',#230,#261,#266,.T.) ;
#286=EDGE_CURVE('',#254,#285,#283,.T.) ;
#293=EDGE_CURVE('',#285,#292,#290,.T.) ;
#298=EDGE_CURVE('',#261,#292,#297,.T.) ;
#317=EDGE_CURVE('',#285,#316,#314,.F.) ;
#324=EDGE_CURVE('',#316,#323,#321,.T.) ;
#329=EDGE_CURVE('',#292,#323,#328,.F.) ;
#346=EDGE_CURVE('',#316,#59,#345,.T.) ;
#351=EDGE_CURVE('',#323,#61,#350,.T.) ;
#372=EDGE_CURVE('',#369,#371,#367,.T.) ;
#379=EDGE_CURVE('',#378,#371,#376,.T.) ;
#386=EDGE_CURVE('',#385,#378,#383,.T.) ;
#391=EDGE_CURVE('',#385,#369,#390,.T.) ;
#403=EDGE_CURVE('',#371,#369,#402,.T.) ;
#408=EDGE_CURVE('',#378,#385,#407,.T.) ;
#82=EDGE_LOOP('',(#83,#84,#85,#86)) ;
#113=EDGE_LOOP('',(#114,#115,#116,#117)) ;
#144=EDGE_LOOP('',(#145,#146,#147,#148)) ;
#175=EDGE_LOOP('',(#176,#177,#178,#179)) ;
#206=EDGE_LOOP('',(#207,#208,#209,#210)) ;
#237=EDGE_LOOP('',(#238,#239,#240,#241)) ;
#268=EDGE_LOOP('',(#269,#270,#271,#272)) ;
#299=EDGE_LOOP('',(#300,#301,#302,#303)) ;
#330=EDGE_LOOP('',(#331,#332,#333,#334)) ;
#352=EDGE_LOOP('',(#353,#354,#355,#356)) ;
#392=EDGE_LOOP('',(#393,#394,#395,#396)) ;
#409=EDGE_LOOP('',(#410,#411,#412,#413)) ;
#421=EDGE_LOOP('',(#422,#423,#424,#425,#426,#427,#428,#429,#430,#431)) ;
#433=EDGE_LOOP('',(#434,#435)) ;
#443=EDGE_LOOP('',(#444,#445,#446,#447,#448,#449,#450,#451,#452,#453)) ;
#455=EDGE_LOOP('',(#456,#457)) ;
#87=FACE_OUTER_BOUND('',#82,.T.) ;
#118=FACE_OUTER_BOUND('',#113,.T.) ;
#149=FACE_OUTER_BOUND('',#144,.T.) ;
#180=FACE_OUTER_BOUND('',#175,.T.) ;
#211=FACE_OUTER_BOUND('',#206,.T.) ;
#242=FACE_OUTER_BOUND('',#237,.T.) ;
#273=FACE_OUTER_BOUND('',#268,.T.) ;
#304=FACE_OUTER_BOUND('',#299,.T.) ;
#335=FACE_OUTER_BOUND('',#330,.T.) ;
#357=FACE_OUTER_BOUND('',#352,.T.) ;
#397=FACE_OUTER_BOUND('',#392,.T.) ;
#414=FACE_OUTER_BOUND('',#409,.T.) ;
#432=FACE_OUTER_BOUND('',#421,.T.) ;
#454=FACE_OUTER_BOUND('',#443,.T.) ;
#57=LINE('Line',#54,#56) ;
#66=LINE('Line',#63,#65) ;
#73=LINE('Line',#70,#72) ;
#80=LINE('Line',#77,#79) ;
#104=LINE('Line',#101,#103) ;
#135=LINE('Line',#132,#134) ;
#166=LINE('Line',#163,#165) ;
#197=LINE('Line',#194,#196) ;
#228=LINE('Line',#225,#227) ;
#259=LINE('Line',#256,#258) ;
#290=LINE('Line',#287,#289) ;
#314=LINE('Line',#311,#313) ;
#321=LINE('Line',#318,#320) ;
#328=LINE('Line',#325,#327) ;
#376=LINE('Line',#373,#375) ;
#390=LINE('Line',#387,#389) ;
#25=PLANE('Referenz_xy',#24) ;
#32=PLANE('Referenz_yz',#31) ;
#37=PLANE('Referenz_xz',#36) ;
#53=PLANE('',#52) ;
#310=PLANE('',#309) ;
#420=PLANE('',#419) ;
#442=PLANE('',#441) ;
#9=PRODUCT_CATEGORY_RELATIONSHIP(' ',' ',#7,#8) ;
#6=PRODUCT_DEFINITION_FORMATION_WITH_SPECIFIED_SOURCE('',' ',#5,.NOT_KNOWN.) ;
#20=SHAPE_DEFINITION_REPRESENTATION(#11,#19) ;
#59=VERTEX_POINT('',#58) ;
#61=VERTEX_POINT('',#60) ;
#68=VERTEX_POINT('',#67) ;
#75=VERTEX_POINT('',#74) ;
#99=VERTEX_POINT('',#98) ;
#106=VERTEX_POINT('',#105) ;
#130=VERTEX_POINT('',#129) ;
#137=VERTEX_POINT('',#136) ;
#161=VERTEX_POINT('',#160) ;
#168=VERTEX_POINT('',#167) ;
#192=VERTEX_POINT('',#191) ;
#199=VERTEX_POINT('',#198) ;
#223=VERTEX_POINT('',#222) ;
#230=VERTEX_POINT('',#229) ;
#254=VERTEX_POINT('',#253) ;
#261=VERTEX_POINT('',#260) ;
#285=VERTEX_POINT('',#284) ;
#292=VERTEX_POINT('',#291) ;
#316=VERTEX_POINT('',#315) ;
#323=VERTEX_POINT('',#322) ;
#369=VERTEX_POINT('',#368) ;
#371=VERTEX_POINT('',#370) ;
#378=VERTEX_POINT('',#377) ;
#385=VERTEX_POINT('',#384) ;
#12=(LENGTH_UNIT()NAMED_UNIT(*)SI_UNIT(.MILLI.,.METRE.)) ;
#13=(NAMED_UNIT(*)PLANE_ANGLE_UNIT()SI_UNIT($,.RADIAN.)) ;
#14=(NAMED_UNIT(*)SI_UNIT($,.STERADIAN.)SOLID_ANGLE_UNIT()) ;
#16=(GEOMETRIC_REPRESENTATION_CONTEXT(3)GLOBAL_UNCERTAINTY_ASSIGNED_CONTEXT((#15))GLOBAL_UNIT_ASSIGNED_CONTEXT((#12,#13,#14))REPRESENTATION_CONTEXT(' ',' ')) ;
ENDSEC;
END-ISO-10303-21;
