ISO-10303-21;
HEADER;
FILE_DESCRIPTION(('CATIA V5R24 STEP','CAx-IF Rec.Pracs.--- Model Styling and Organization---1.2---2011-12-15'),'2;1');

FILE_NAME ('D1455786_0_1772470000_1772470000.stp','2018-07-04T06:41:23+00:00',('none'),('Weidmueller'),'CATIA Version 5-6 Release 2014 SP4 HF52','CATIA V5 STEP AP214','none');

FILE_SCHEMA(('AUTOMOTIVE_DESIGN { 1 0 10303 214 1 1 1 1 }'));

ENDSEC;
DATA;
#5=PRODUCT('1772470000_SKMU_M25_-_K_GR','','',(#2)) ;
#2=PRODUCT_CONTEXT(' ',#1,'mechanical') ;
#1=APPLICATION_CONTEXT('automotive design') ;
#10=PRODUCT_DEFINITION('',' ',#6,#3) ;
#3=PRODUCT_DEFINITION_CONTEXT('part definition',#1,' ') ;
#11=PRODUCT_DEFINITION_SHAPE(' ',' ',#10) ;
#581=MECHANICAL_DESIGN_GEOMETRIC_PRESENTATION_REPRESENTATION(' ',(#29),#16) ;
#19=SHAPE_REPRESENTATION(' ',(#18),#16) ;
#18=AXIS2_PLACEMENT_3D(' ',#17,$,$) ;
#34=AXIS2_PLACEMENT_3D('Plane Axis2P3D',#31,#32,#33) ;
#38=AXIS2_PLACEMENT_3D('Circle Axis2P3D',#36,#37,$) ;
#58=AXIS2_PLACEMENT_3D('Plane Axis2P3D',#55,#56,#57) ;
#89=AXIS2_PLACEMENT_3D('Plane Axis2P3D',#86,#87,#88) ;
#93=AXIS2_PLACEMENT_3D('Circle Axis2P3D',#91,#92,$) ;
#100=AXIS2_PLACEMENT_3D('Circle Axis2P3D',#98,#99,$) ;
#114=AXIS2_PLACEMENT_3D('Circle Axis2P3D',#112,#113,$) ;
#128=AXIS2_PLACEMENT_3D('Circle Axis2P3D',#126,#127,$) ;
#142=AXIS2_PLACEMENT_3D('Circle Axis2P3D',#140,#141,$) ;
#149=AXIS2_PLACEMENT_3D('Circle Axis2P3D',#147,#148,$) ;
#163=AXIS2_PLACEMENT_3D('Circle Axis2P3D',#161,#162,$) ;
#177=AXIS2_PLACEMENT_3D('Circle Axis2P3D',#175,#176,$) ;
#198=AXIS2_PLACEMENT_3D('Circle Axis2P3D',#196,#197,$) ;
#207=AXIS2_PLACEMENT_3D('Circle Axis2P3D',#205,#206,$) ;
#218=AXIS2_PLACEMENT_3D('Plane Axis2P3D',#215,#216,#217) ;
#249=AXIS2_PLACEMENT_3D('Plane Axis2P3D',#246,#247,#248) ;
#253=AXIS2_PLACEMENT_3D('Circle Axis2P3D',#251,#252,$) ;
#264=AXIS2_PLACEMENT_3D('Cylinder Axis2P3D',#261,#262,#263) ;
#275=AXIS2_PLACEMENT_3D('Circle Axis2P3D',#273,#274,$) ;
#294=AXIS2_PLACEMENT_3D('Circle Axis2P3D',#292,#293,$) ;
#326=AXIS2_PLACEMENT_3D('Plane Axis2P3D',#323,#324,#325) ;
#341=AXIS2_PLACEMENT_3D('Plane Axis2P3D',#338,#339,#340) ;
#353=AXIS2_PLACEMENT_3D('Plane Axis2P3D',#350,#351,#352) ;
#357=AXIS2_PLACEMENT_3D('Circle Axis2P3D',#355,#356,$) ;
#377=AXIS2_PLACEMENT_3D('Plane Axis2P3D',#374,#375,#376) ;
#399=AXIS2_PLACEMENT_3D('Plane Axis2P3D',#396,#397,#398) ;
#403=AXIS2_PLACEMENT_3D('Circle Axis2P3D',#401,#402,$) ;
#423=AXIS2_PLACEMENT_3D('Plane Axis2P3D',#420,#421,#422) ;
#445=AXIS2_PLACEMENT_3D('Plane Axis2P3D',#442,#443,#444) ;
#449=AXIS2_PLACEMENT_3D('Circle Axis2P3D',#447,#448,$) ;
#469=AXIS2_PLACEMENT_3D('Plane Axis2P3D',#466,#467,#468) ;
#491=AXIS2_PLACEMENT_3D('Cylinder Axis2P3D',#488,#489,#490) ;
#509=AXIS2_PLACEMENT_3D('Circle Axis2P3D',#507,#508,$) ;
#522=AXIS2_PLACEMENT_3D('Cylinder Axis2P3D',#519,#520,#521) ;
#526=AXIS2_PLACEMENT_3D('Circle Axis2P3D',#524,#525,$) ;
#539=AXIS2_PLACEMENT_3D('Plane Axis2P3D',#536,#537,#538) ;
#543=AXIS2_PLACEMENT_3D('Circle Axis2P3D',#541,#542,$) ;
#558=AXIS2_PLACEMENT_3D('Cylinder Axis2P3D',#555,#556,#557) ;
#17=CARTESIAN_POINT(' ',(0.,0.,0.)) ;
#31=CARTESIAN_POINT('Axis2P3D Location',(18.,18.,1.5)) ;
#36=CARTESIAN_POINT('Axis2P3D Location',(18.,17.9999999993,1.5)) ;
#40=CARTESIAN_POINT('Vertex',(2.,26.2462112512,1.5)) ;
#42=CARTESIAN_POINT('Vertex',(2.,9.75378874876,1.5)) ;
#45=CARTESIAN_POINT('Line Origine',(2.00000000003,18.,1.5)) ;
#55=CARTESIAN_POINT('Axis2P3D Location',(2.,27.237604307,1.5)) ;
#60=CARTESIAN_POINT('Line Origine',(2.,26.2462112513,3.75)) ;
#64=CARTESIAN_POINT('Vertex',(2.,26.2462112512,6.)) ;
#67=CARTESIAN_POINT('Line Origine',(2.,9.75378874878,3.75)) ;
#71=CARTESIAN_POINT('Vertex',(2.,9.75378874876,6.)) ;
#74=CARTESIAN_POINT('Line Origine',(2.,18.,6.)) ;
#86=CARTESIAN_POINT('Axis2P3D Location',(18.,18.,6.)) ;
#91=CARTESIAN_POINT('Axis2P3D Location',(18.0000023026,18.0000012573,6.)) ;
#95=CARTESIAN_POINT('Vertex',(2.41154273188,9.,6.)) ;
#98=CARTESIAN_POINT('Axis2P3D Location',(18.0000022402,18.0000013655,6.)) ;
#102=CARTESIAN_POINT('Vertex',(2.85857157146,8.26669916507,6.)) ;
#105=CARTESIAN_POINT('Line Origine',(10.,4.14359353947,6.)) ;
#109=CARTESIAN_POINT('Vertex',(17.1414284285,0.0204879138313,6.)) ;
#112=CARTESIAN_POINT('Axis2P3D Location',(18.0000000071,18.0000000027,6.)) ;
#116=CARTESIAN_POINT('Vertex',(18.8585715715,0.0204879138313,6.)) ;
#119=CARTESIAN_POINT('Line Origine',(26.,4.14359353945,6.)) ;
#123=CARTESIAN_POINT('Vertex',(33.1414284285,8.26669916507,6.)) ;
#126=CARTESIAN_POINT('Axis2P3D Location',(17.9999999941,17.9999999952,6.)) ;
#130=CARTESIAN_POINT('Vertex',(34.,9.75378874876,6.)) ;
#133=CARTESIAN_POINT('Line Origine',(34.,18.,6.)) ;
#137=CARTESIAN_POINT('Vertex',(34.,26.2462112512,6.)) ;
#140=CARTESIAN_POINT('Axis2P3D Location',(17.9999976974,17.9999987427,6.)) ;
#144=CARTESIAN_POINT('Vertex',(33.5884572681,27.,6.)) ;
#147=CARTESIAN_POINT('Axis2P3D Location',(17.9999977598,17.9999986345,6.)) ;
#151=CARTESIAN_POINT('Vertex',(33.1414284285,27.7333008349,6.)) ;
#154=CARTESIAN_POINT('Line Origine',(26.,31.8564064605,6.)) ;
#158=CARTESIAN_POINT('Vertex',(18.8585715715,35.9795120862,6.)) ;
#161=CARTESIAN_POINT('Axis2P3D Location',(17.9999999929,17.9999999973,6.)) ;
#165=CARTESIAN_POINT('Vertex',(17.1414284285,35.9795120862,6.)) ;
#168=CARTESIAN_POINT('Line Origine',(10.,31.8564064606,6.)) ;
#172=CARTESIAN_POINT('Vertex',(2.85857157146,27.7333008349,6.)) ;
#175=CARTESIAN_POINT('Axis2P3D Location',(18.0000000059,18.0000000048,6.)) ;
#196=CARTESIAN_POINT('Axis2P3D Location',(18.,18.,6.)) ;
#200=CARTESIAN_POINT('Vertex',(7.17468245269,11.75,6.)) ;
#202=CARTESIAN_POINT('Vertex',(28.8253175473,24.25,6.)) ;
#205=CARTESIAN_POINT('Axis2P3D Location',(18.,18.,6.)) ;
#215=CARTESIAN_POINT('Axis2P3D Location',(18.,36.4752086141,1.5)) ;
#220=CARTESIAN_POINT('Line Origine',(17.1414284286,35.9795120862,3.75)) ;
#224=CARTESIAN_POINT('Vertex',(17.1414284285,35.9795120862,1.5)) ;
#227=CARTESIAN_POINT('Line Origine',(10.,31.8564064606,1.5)) ;
#231=CARTESIAN_POINT('Vertex',(2.85857157146,27.7333008349,1.5)) ;
#234=CARTESIAN_POINT('Line Origine',(2.85857157147,27.7333008349,3.75)) ;
#246=CARTESIAN_POINT('Axis2P3D Location',(18.,18.,1.5)) ;
#251=CARTESIAN_POINT('Axis2P3D Location',(18.,18.,1.5)) ;
#261=CARTESIAN_POINT('Axis2P3D Location',(18.,18.,6.)) ;
#266=CARTESIAN_POINT('Line Origine',(33.5884572681,27.,6.)) ;
#270=CARTESIAN_POINT('Vertex',(33.5884572681,27.,0.)) ;
#273=CARTESIAN_POINT('Axis2P3D Location',(18.,18.,0.)) ;
#277=CARTESIAN_POINT('Vertex',(2.41154273188,9.,0.)) ;
#280=CARTESIAN_POINT('Line Origine',(2.41154273188,9.,6.)) ;
#285=CARTESIAN_POINT('Line Origine',(18.8585715715,35.9795120862,6.)) ;
#289=CARTESIAN_POINT('Vertex',(18.8585715715,35.9795120862,1.5)) ;
#292=CARTESIAN_POINT('Axis2P3D Location',(18.,18.,1.5)) ;
#296=CARTESIAN_POINT('Vertex',(33.1414284285,27.7333008349,1.5)) ;
#299=CARTESIAN_POINT('Line Origine',(33.1414284285,27.7333008349,6.)) ;
#323=CARTESIAN_POINT('Axis2P3D Location',(18.,18.,1.5)) ;
#328=CARTESIAN_POINT('Line Origine',(26.,31.8564064605,1.5)) ;
#338=CARTESIAN_POINT('Axis2P3D Location',(34.,27.237604307,1.5)) ;
#350=CARTESIAN_POINT('Axis2P3D Location',(18.,18.,1.5)) ;
#355=CARTESIAN_POINT('Axis2P3D Location',(18.,18.0000000007,1.5)) ;
#359=CARTESIAN_POINT('Vertex',(34.,9.75378874876,1.5)) ;
#361=CARTESIAN_POINT('Vertex',(34.,26.2462112512,1.5)) ;
#364=CARTESIAN_POINT('Line Origine',(34.,18.,1.5)) ;
#374=CARTESIAN_POINT('Axis2P3D Location',(34.,8.76239569297,1.5)) ;
#379=CARTESIAN_POINT('Line Origine',(34.,9.75378874873,3.75)) ;
#384=CARTESIAN_POINT('Line Origine',(34.,26.2462112512,3.75)) ;
#396=CARTESIAN_POINT('Axis2P3D Location',(18.,18.,1.5)) ;
#401=CARTESIAN_POINT('Axis2P3D Location',(18.,18.,1.5)) ;
#405=CARTESIAN_POINT('Vertex',(18.8585715715,0.0204879138313,1.5)) ;
#407=CARTESIAN_POINT('Vertex',(33.1414284285,8.26669916507,1.5)) ;
#410=CARTESIAN_POINT('Line Origine',(26.,4.14359353945,1.5)) ;
#420=CARTESIAN_POINT('Axis2P3D Location',(18.,-0.475208614068,1.5)) ;
#425=CARTESIAN_POINT('Line Origine',(18.8585715714,0.0204879138154,3.75)) ;
#430=CARTESIAN_POINT('Line Origine',(33.1414284285,8.26669916506,3.75)) ;
#442=CARTESIAN_POINT('Axis2P3D Location',(18.,18.,1.5)) ;
#447=CARTESIAN_POINT('Axis2P3D Location',(17.9999999994,18.0000000004,1.5)) ;
#451=CARTESIAN_POINT('Vertex',(2.85857157146,8.26669916507,1.5)) ;
#453=CARTESIAN_POINT('Vertex',(17.1414284285,0.0204879138313,1.5)) ;
#456=CARTESIAN_POINT('Line Origine',(10.,4.14359353947,1.5)) ;
#466=CARTESIAN_POINT('Axis2P3D Location',(2.,8.76239569297,1.5)) ;
#471=CARTESIAN_POINT('Line Origine',(2.85857157143,8.26669916508,3.75)) ;
#476=CARTESIAN_POINT('Line Origine',(17.1414284285,0.0204879138386,3.75)) ;
#488=CARTESIAN_POINT('Axis2P3D Location',(18.,18.,6.)) ;
#493=CARTESIAN_POINT('Line Origine',(28.8253175473,24.25,6.)) ;
#497=CARTESIAN_POINT('Vertex',(28.8253175473,24.25,0.)) ;
#500=CARTESIAN_POINT('Line Origine',(7.17468245269,11.75,6.)) ;
#504=CARTESIAN_POINT('Vertex',(7.17468245269,11.75,0.)) ;
#507=CARTESIAN_POINT('Axis2P3D Location',(18.,18.,0.)) ;
#519=CARTESIAN_POINT('Axis2P3D Location',(18.,18.,6.)) ;
#524=CARTESIAN_POINT('Axis2P3D Location',(18.,18.,0.)) ;
#536=CARTESIAN_POINT('Axis2P3D Location',(18.,18.,0.)) ;
#541=CARTESIAN_POINT('Axis2P3D Location',(18.,18.,0.)) ;
#555=CARTESIAN_POINT('Axis2P3D Location',(18.,18.,6.)) ;
#32=DIRECTION('Axis2P3D Direction',(0.,-0.,1.)) ;
#33=DIRECTION('Axis2P3D XDirection',(0.866025403784,0.5,0.)) ;
#37=DIRECTION('Axis2P3D Direction',(0.,-0.,1.)) ;
#46=DIRECTION('Vector Direction',(-4.72695165234E-011,-1.,0.)) ;
#56=DIRECTION('Axis2P3D Direction',(-1.,-1.11022302463E-016,0.)) ;
#57=DIRECTION('Axis2P3D XDirection',(1.11022302463E-016,-1.,0.)) ;
#61=DIRECTION('Vector Direction',(0.,0.,-1.)) ;
#68=DIRECTION('Vector Direction',(0.,0.,1.)) ;
#75=DIRECTION('Vector Direction',(1.07707454083E-016,-1.,0.)) ;
#87=DIRECTION('Axis2P3D Direction',(0.,-0.,1.)) ;
#88=DIRECTION('Axis2P3D XDirection',(0.866025403784,0.5,0.)) ;
#92=DIRECTION('Axis2P3D Direction',(0.,-0.,1.)) ;
#99=DIRECTION('Axis2P3D Direction',(0.,-0.,1.)) ;
#106=DIRECTION('Vector Direction',(0.866025403808,-0.499999999959,0.)) ;
#113=DIRECTION('Axis2P3D Direction',(0.,-0.,1.)) ;
#120=DIRECTION('Vector Direction',(0.866025403784,0.5,0.)) ;
#127=DIRECTION('Axis2P3D Direction',(0.,-0.,1.)) ;
#134=DIRECTION('Vector Direction',(4.72697857921E-011,1.,0.)) ;
#141=DIRECTION('Axis2P3D Direction',(0.,-0.,1.)) ;
#148=DIRECTION('Axis2P3D Direction',(0.,-0.,1.)) ;
#155=DIRECTION('Vector Direction',(-0.866025403808,0.499999999959,0.)) ;
#162=DIRECTION('Axis2P3D Direction',(0.,-0.,1.)) ;
#169=DIRECTION('Vector Direction',(-0.866025403784,-0.5,0.)) ;
#176=DIRECTION('Axis2P3D Direction',(0.,-0.,1.)) ;
#197=DIRECTION('Axis2P3D Direction',(0.,-0.,1.)) ;
#206=DIRECTION('Axis2P3D Direction',(0.,-0.,1.)) ;
#216=DIRECTION('Axis2P3D Direction',(-0.5,0.866025403784,0.)) ;
#217=DIRECTION('Axis2P3D XDirection',(-0.866025403784,-0.5,0.)) ;
#221=DIRECTION('Vector Direction',(0.,0.,-1.)) ;
#228=DIRECTION('Vector Direction',(-0.866025403784,-0.5,0.)) ;
#235=DIRECTION('Vector Direction',(0.,0.,1.)) ;
#247=DIRECTION('Axis2P3D Direction',(0.,-0.,1.)) ;
#248=DIRECTION('Axis2P3D XDirection',(0.866025403784,0.5,0.)) ;
#252=DIRECTION('Axis2P3D Direction',(0.,-0.,1.)) ;
#262=DIRECTION('Axis2P3D Direction',(-0.,0.,-1.)) ;
#263=DIRECTION('Axis2P3D XDirection',(-0.866025403784,-0.5,0.)) ;
#267=DIRECTION('Vector Direction',(0.,0.,-1.)) ;
#274=DIRECTION('Axis2P3D Direction',(-0.,0.,-1.)) ;
#281=DIRECTION('Vector Direction',(0.,0.,-1.)) ;
#286=DIRECTION('Vector Direction',(0.,0.,-1.)) ;
#293=DIRECTION('Axis2P3D Direction',(-0.,0.,-1.)) ;
#300=DIRECTION('Vector Direction',(0.,0.,-1.)) ;
#324=DIRECTION('Axis2P3D Direction',(0.,-0.,1.)) ;
#325=DIRECTION('Axis2P3D XDirection',(0.866025403784,0.5,0.)) ;
#329=DIRECTION('Vector Direction',(-0.866025403808,0.499999999959,0.)) ;
#339=DIRECTION('Axis2P3D Direction',(0.5,0.866025403784,-0.)) ;
#340=DIRECTION('Axis2P3D XDirection',(-0.866025403784,0.5,0.)) ;
#351=DIRECTION('Axis2P3D Direction',(0.,-0.,1.)) ;
#352=DIRECTION('Axis2P3D XDirection',(0.866025403784,0.5,0.)) ;
#356=DIRECTION('Axis2P3D Direction',(0.,-0.,1.)) ;
#365=DIRECTION('Vector Direction',(4.72693549623E-011,1.,0.)) ;
#375=DIRECTION('Axis2P3D Direction',(1.,5.55111512313E-017,-0.)) ;
#376=DIRECTION('Axis2P3D XDirection',(-5.55111512313E-017,1.,0.)) ;
#380=DIRECTION('Vector Direction',(0.,0.,-1.)) ;
#385=DIRECTION('Vector Direction',(0.,0.,1.)) ;
#397=DIRECTION('Axis2P3D Direction',(0.,-0.,1.)) ;
#398=DIRECTION('Axis2P3D XDirection',(0.866025403784,0.5,0.)) ;
#402=DIRECTION('Axis2P3D Direction',(0.,-0.,1.)) ;
#411=DIRECTION('Vector Direction',(0.866025403784,0.5,0.)) ;
#421=DIRECTION('Axis2P3D Direction',(0.5,-0.866025403784,0.)) ;
#422=DIRECTION('Axis2P3D XDirection',(0.,0.,-1.)) ;
#426=DIRECTION('Vector Direction',(0.,0.,-1.)) ;
#431=DIRECTION('Vector Direction',(0.,0.,1.)) ;
#443=DIRECTION('Axis2P3D Direction',(0.,-0.,1.)) ;
#444=DIRECTION('Axis2P3D XDirection',(0.866025403784,0.5,0.)) ;
#448=DIRECTION('Axis2P3D Direction',(0.,-0.,1.)) ;
#457=DIRECTION('Vector Direction',(0.866025403808,-0.499999999959,0.)) ;
#467=DIRECTION('Axis2P3D Direction',(-0.5,-0.866025403784,0.)) ;
#468=DIRECTION('Axis2P3D XDirection',(0.866025403784,-0.5,0.)) ;
#472=DIRECTION('Vector Direction',(0.,0.,-1.)) ;
#477=DIRECTION('Vector Direction',(0.,0.,1.)) ;
#489=DIRECTION('Axis2P3D Direction',(-0.,0.,-1.)) ;
#490=DIRECTION('Axis2P3D XDirection',(-0.866025403784,-0.5,0.)) ;
#494=DIRECTION('Vector Direction',(0.,0.,-1.)) ;
#501=DIRECTION('Vector Direction',(0.,0.,-1.)) ;
#508=DIRECTION('Axis2P3D Direction',(-0.,0.,-1.)) ;
#520=DIRECTION('Axis2P3D Direction',(-0.,0.,-1.)) ;
#521=DIRECTION('Axis2P3D XDirection',(0.866025403784,0.5,0.)) ;
#525=DIRECTION('Axis2P3D Direction',(-0.,0.,-1.)) ;
#537=DIRECTION('Axis2P3D Direction',(0.,-0.,1.)) ;
#538=DIRECTION('Axis2P3D XDirection',(0.866025403784,0.5,0.)) ;
#542=DIRECTION('Axis2P3D Direction',(0.,-0.,1.)) ;
#556=DIRECTION('Axis2P3D Direction',(-0.,0.,-1.)) ;
#557=DIRECTION('Axis2P3D XDirection',(0.866025403784,0.5,0.)) ;
#8=PRODUCT_RELATED_PRODUCT_CATEGORY('part',$,(#5)) ;
#7=PRODUCT_CATEGORY('part','specification') ;
#29=STYLED_ITEM(' ',(#28),#21) ;
#28=PRESENTATION_STYLE_ASSIGNMENT((#27)) ;
#27=SURFACE_STYLE_USAGE(.BOTH.,#26) ;
#26=SURFACE_SIDE_STYLE(' ',(#25)) ;
#25=SURFACE_STYLE_FILL_AREA(#24) ;
#24=FILL_AREA_STYLE(' ',(#23)) ;
#23=FILL_AREA_STYLE_COLOUR(' ',#22) ;
#47=VECTOR('Line Direction',#46,1.) ;
#62=VECTOR('Line Direction',#61,1.) ;
#69=VECTOR('Line Direction',#68,1.) ;
#76=VECTOR('Line Direction',#75,1.) ;
#107=VECTOR('Line Direction',#106,1.) ;
#121=VECTOR('Line Direction',#120,1.) ;
#135=VECTOR('Line Direction',#134,1.) ;
#156=VECTOR('Line Direction',#155,1.) ;
#170=VECTOR('Line Direction',#169,1.) ;
#222=VECTOR('Line Direction',#221,1.) ;
#229=VECTOR('Line Direction',#228,1.) ;
#236=VECTOR('Line Direction',#235,1.) ;
#268=VECTOR('Line Direction',#267,1.) ;
#282=VECTOR('Line Direction',#281,1.) ;
#287=VECTOR('Line Direction',#286,1.) ;
#301=VECTOR('Line Direction',#300,1.) ;
#330=VECTOR('Line Direction',#329,1.) ;
#366=VECTOR('Line Direction',#365,1.) ;
#381=VECTOR('Line Direction',#380,1.) ;
#386=VECTOR('Line Direction',#385,1.) ;
#412=VECTOR('Line Direction',#411,1.) ;
#427=VECTOR('Line Direction',#426,1.) ;
#432=VECTOR('Line Direction',#431,1.) ;
#458=VECTOR('Line Direction',#457,1.) ;
#473=VECTOR('Line Direction',#472,1.) ;
#478=VECTOR('Line Direction',#477,1.) ;
#495=VECTOR('Line Direction',#494,1.) ;
#502=VECTOR('Line Direction',#501,1.) ;
#15=UNCERTAINTY_MEASURE_WITH_UNIT(LENGTH_MEASURE(0.005),#12,'distance_accuracy_value','CONFUSED CURVE UNCERTAINTY') ;
#580=SHAPE_REPRESENTATION_RELATIONSHIP(' ',' ',#19,#579) ;
#51=ORIENTED_EDGE('',*,*,#44,.T.) ;
#52=ORIENTED_EDGE('',*,*,#49,.F.) ;
#80=ORIENTED_EDGE('',*,*,#66,.T.) ;
#81=ORIENTED_EDGE('',*,*,#49,.T.) ;
#82=ORIENTED_EDGE('',*,*,#73,.T.) ;
#83=ORIENTED_EDGE('',*,*,#78,.F.) ;
#181=ORIENTED_EDGE('',*,*,#97,.T.) ;
#182=ORIENTED_EDGE('',*,*,#104,.T.) ;
#183=ORIENTED_EDGE('',*,*,#111,.T.) ;
#184=ORIENTED_EDGE('',*,*,#118,.T.) ;
#185=ORIENTED_EDGE('',*,*,#125,.T.) ;
#186=ORIENTED_EDGE('',*,*,#132,.T.) ;
#187=ORIENTED_EDGE('',*,*,#139,.T.) ;
#188=ORIENTED_EDGE('',*,*,#146,.T.) ;
#189=ORIENTED_EDGE('',*,*,#153,.T.) ;
#190=ORIENTED_EDGE('',*,*,#160,.T.) ;
#191=ORIENTED_EDGE('',*,*,#167,.T.) ;
#192=ORIENTED_EDGE('',*,*,#174,.T.) ;
#193=ORIENTED_EDGE('',*,*,#179,.T.) ;
#194=ORIENTED_EDGE('',*,*,#78,.T.) ;
#211=ORIENTED_EDGE('',*,*,#204,.T.) ;
#212=ORIENTED_EDGE('',*,*,#209,.T.) ;
#240=ORIENTED_EDGE('',*,*,#226,.T.) ;
#241=ORIENTED_EDGE('',*,*,#233,.T.) ;
#242=ORIENTED_EDGE('',*,*,#238,.T.) ;
#243=ORIENTED_EDGE('',*,*,#174,.F.) ;
#257=ORIENTED_EDGE('',*,*,#255,.T.) ;
#258=ORIENTED_EDGE('',*,*,#233,.F.) ;
#305=ORIENTED_EDGE('',*,*,#153,.F.) ;
#306=ORIENTED_EDGE('',*,*,#272,.T.) ;
#307=ORIENTED_EDGE('',*,*,#279,.T.) ;
#308=ORIENTED_EDGE('',*,*,#284,.F.) ;
#309=ORIENTED_EDGE('',*,*,#97,.F.) ;
#310=ORIENTED_EDGE('',*,*,#73,.F.) ;
#311=ORIENTED_EDGE('',*,*,#44,.F.) ;
#312=ORIENTED_EDGE('',*,*,#66,.F.) ;
#313=ORIENTED_EDGE('',*,*,#179,.F.) ;
#314=ORIENTED_EDGE('',*,*,#238,.F.) ;
#315=ORIENTED_EDGE('',*,*,#255,.F.) ;
#316=ORIENTED_EDGE('',*,*,#226,.F.) ;
#317=ORIENTED_EDGE('',*,*,#167,.F.) ;
#318=ORIENTED_EDGE('',*,*,#291,.F.) ;
#319=ORIENTED_EDGE('',*,*,#298,.F.) ;
#320=ORIENTED_EDGE('',*,*,#303,.F.) ;
#334=ORIENTED_EDGE('',*,*,#298,.T.) ;
#335=ORIENTED_EDGE('',*,*,#332,.F.) ;
#344=ORIENTED_EDGE('',*,*,#303,.T.) ;
#345=ORIENTED_EDGE('',*,*,#332,.T.) ;
#346=ORIENTED_EDGE('',*,*,#291,.T.) ;
#347=ORIENTED_EDGE('',*,*,#160,.F.) ;
#370=ORIENTED_EDGE('',*,*,#363,.T.) ;
#371=ORIENTED_EDGE('',*,*,#368,.F.) ;
#390=ORIENTED_EDGE('',*,*,#383,.T.) ;
#391=ORIENTED_EDGE('',*,*,#368,.T.) ;
#392=ORIENTED_EDGE('',*,*,#388,.T.) ;
#393=ORIENTED_EDGE('',*,*,#139,.F.) ;
#416=ORIENTED_EDGE('',*,*,#409,.T.) ;
#417=ORIENTED_EDGE('',*,*,#414,.F.) ;
#436=ORIENTED_EDGE('',*,*,#429,.T.) ;
#437=ORIENTED_EDGE('',*,*,#414,.T.) ;
#438=ORIENTED_EDGE('',*,*,#434,.T.) ;
#439=ORIENTED_EDGE('',*,*,#125,.F.) ;
#462=ORIENTED_EDGE('',*,*,#455,.T.) ;
#463=ORIENTED_EDGE('',*,*,#460,.F.) ;
#482=ORIENTED_EDGE('',*,*,#475,.T.) ;
#483=ORIENTED_EDGE('',*,*,#460,.T.) ;
#484=ORIENTED_EDGE('',*,*,#480,.T.) ;
#485=ORIENTED_EDGE('',*,*,#111,.F.) ;
#513=ORIENTED_EDGE('',*,*,#499,.F.) ;
#514=ORIENTED_EDGE('',*,*,#204,.F.) ;
#515=ORIENTED_EDGE('',*,*,#506,.T.) ;
#516=ORIENTED_EDGE('',*,*,#511,.T.) ;
#530=ORIENTED_EDGE('',*,*,#209,.F.) ;
#531=ORIENTED_EDGE('',*,*,#499,.T.) ;
#532=ORIENTED_EDGE('',*,*,#528,.T.) ;
#533=ORIENTED_EDGE('',*,*,#506,.F.) ;
#547=ORIENTED_EDGE('',*,*,#545,.F.) ;
#548=ORIENTED_EDGE('',*,*,#279,.F.) ;
#551=ORIENTED_EDGE('',*,*,#528,.F.) ;
#552=ORIENTED_EDGE('',*,*,#511,.F.) ;
#561=ORIENTED_EDGE('',*,*,#272,.F.) ;
#562=ORIENTED_EDGE('',*,*,#146,.F.) ;
#563=ORIENTED_EDGE('',*,*,#388,.F.) ;
#564=ORIENTED_EDGE('',*,*,#363,.F.) ;
#565=ORIENTED_EDGE('',*,*,#383,.F.) ;
#566=ORIENTED_EDGE('',*,*,#132,.F.) ;
#567=ORIENTED_EDGE('',*,*,#434,.F.) ;
#568=ORIENTED_EDGE('',*,*,#409,.F.) ;
#569=ORIENTED_EDGE('',*,*,#429,.F.) ;
#570=ORIENTED_EDGE('',*,*,#118,.F.) ;
#571=ORIENTED_EDGE('',*,*,#480,.F.) ;
#572=ORIENTED_EDGE('',*,*,#455,.F.) ;
#573=ORIENTED_EDGE('',*,*,#475,.F.) ;
#574=ORIENTED_EDGE('',*,*,#104,.F.) ;
#575=ORIENTED_EDGE('',*,*,#284,.T.) ;
#576=ORIENTED_EDGE('',*,*,#545,.T.) ;
#213=FACE_BOUND('',#210,.T.) ;
#553=FACE_BOUND('',#550,.T.) ;
#30=CLOSED_SHELL('Closed Shell',(#54,#85,#214,#245,#260,#322,#337,#349,#373,#395,#419,#441,#465,#487,#518,#535,#554,#578)) ;
#579=ADVANCED_BREP_SHAPE_REPRESENTATION('NONE',(#21),#16) ;
#54=ADVANCED_FACE('Fase1',(#53),#35,.T.) ;
#85=ADVANCED_FACE('Fase1',(#84),#59,.T.) ;
#214=ADVANCED_FACE('Fase1',(#195,#213),#90,.T.) ;
#245=ADVANCED_FACE('Fase1',(#244),#219,.T.) ;
#260=ADVANCED_FACE('Fase1',(#259),#250,.T.) ;
#322=ADVANCED_FACE('Fase1',(#321),#265,.T.) ;
#337=ADVANCED_FACE('Fase1',(#336),#327,.T.) ;
#349=ADVANCED_FACE('Fase1',(#348),#342,.T.) ;
#373=ADVANCED_FACE('Fase1',(#372),#354,.T.) ;
#395=ADVANCED_FACE('Fase1',(#394),#378,.T.) ;
#419=ADVANCED_FACE('Fase1',(#418),#400,.T.) ;
#441=ADVANCED_FACE('Fase1',(#440),#424,.T.) ;
#465=ADVANCED_FACE('Fase1',(#464),#446,.T.) ;
#487=ADVANCED_FACE('Fase1',(#486),#470,.T.) ;
#518=ADVANCED_FACE('Fase1',(#517),#492,.F.) ;
#535=ADVANCED_FACE('Fase1',(#534),#523,.F.) ;
#554=ADVANCED_FACE('Fase1',(#549,#553),#540,.F.) ;
#578=ADVANCED_FACE('Fase1',(#577),#559,.T.) ;
#4=APPLICATION_PROTOCOL_DEFINITION('international standard','automotive_design',2001,#1) ;
#21=MANIFOLD_SOLID_BREP('Fase1',#30) ;
#39=CIRCLE('generated circle',#38,17.9999999997) ;
#94=CIRCLE('generated circle',#93,18.0000026228) ;
#101=CIRCLE('generated circle',#100,18.0000026228) ;
#115=CIRCLE('generated circle',#114,18.0000000024) ;
#129=CIRCLE('generated circle',#128,18.0000000024) ;
#143=CIRCLE('generated circle',#142,18.0000026228) ;
#150=CIRCLE('generated circle',#149,18.0000026228) ;
#164=CIRCLE('generated circle',#163,18.0000000024) ;
#178=CIRCLE('generated circle',#177,18.0000000024) ;
#199=CIRCLE('generated circle',#198,12.5) ;
#208=CIRCLE('generated circle',#207,12.5) ;
#254=CIRCLE('generated circle',#253,18.) ;
#276=CIRCLE('generated circle',#275,18.) ;
#295=CIRCLE('generated circle',#294,18.) ;
#358=CIRCLE('generated circle',#357,17.9999999997) ;
#404=CIRCLE('generated circle',#403,18.) ;
#450=CIRCLE('generated circle',#449,17.9999999997) ;
#510=CIRCLE('generated circle',#509,12.5) ;
#527=CIRCLE('generated circle',#526,12.5) ;
#544=CIRCLE('generated circle',#543,18.) ;
#22=COLOUR_RGB('Colour',0.760784313725,0.749019607843,0.721568627451) ;
#265=CYLINDRICAL_SURFACE('generated cylinder',#264,18.) ;
#492=CYLINDRICAL_SURFACE('generated cylinder',#491,12.5) ;
#523=CYLINDRICAL_SURFACE('generated cylinder',#522,12.5) ;
#559=CYLINDRICAL_SURFACE('generated cylinder',#558,18.) ;
#44=EDGE_CURVE('',#41,#43,#39,.T.) ;
#49=EDGE_CURVE('',#41,#43,#48,.T.) ;
#66=EDGE_CURVE('',#65,#41,#63,.T.) ;
#73=EDGE_CURVE('',#43,#72,#70,.T.) ;
#78=EDGE_CURVE('',#65,#72,#77,.T.) ;
#97=EDGE_CURVE('',#72,#96,#94,.T.) ;
#104=EDGE_CURVE('',#96,#103,#101,.T.) ;
#111=EDGE_CURVE('',#103,#110,#108,.T.) ;
#118=EDGE_CURVE('',#110,#117,#115,.T.) ;
#125=EDGE_CURVE('',#117,#124,#122,.T.) ;
#132=EDGE_CURVE('',#124,#131,#129,.T.) ;
#139=EDGE_CURVE('',#131,#138,#136,.T.) ;
#146=EDGE_CURVE('',#138,#145,#143,.T.) ;
#153=EDGE_CURVE('',#145,#152,#150,.T.) ;
#160=EDGE_CURVE('',#152,#159,#157,.T.) ;
#167=EDGE_CURVE('',#159,#166,#164,.T.) ;
#174=EDGE_CURVE('',#166,#173,#171,.T.) ;
#179=EDGE_CURVE('',#173,#65,#178,.T.) ;
#204=EDGE_CURVE('',#201,#203,#199,.F.) ;
#209=EDGE_CURVE('',#203,#201,#208,.F.) ;
#226=EDGE_CURVE('',#166,#225,#223,.T.) ;
#233=EDGE_CURVE('',#225,#232,#230,.T.) ;
#238=EDGE_CURVE('',#232,#173,#237,.T.) ;
#255=EDGE_CURVE('',#225,#232,#254,.T.) ;
#272=EDGE_CURVE('',#145,#271,#269,.T.) ;
#279=EDGE_CURVE('',#271,#278,#276,.F.) ;
#284=EDGE_CURVE('',#96,#278,#283,.T.) ;
#291=EDGE_CURVE('',#290,#159,#288,.F.) ;
#298=EDGE_CURVE('',#297,#290,#295,.F.) ;
#303=EDGE_CURVE('',#152,#297,#302,.T.) ;
#332=EDGE_CURVE('',#297,#290,#331,.T.) ;
#363=EDGE_CURVE('',#360,#362,#358,.T.) ;
#368=EDGE_CURVE('',#360,#362,#367,.T.) ;
#383=EDGE_CURVE('',#131,#360,#382,.T.) ;
#388=EDGE_CURVE('',#362,#138,#387,.T.) ;
#409=EDGE_CURVE('',#406,#408,#404,.T.) ;
#414=EDGE_CURVE('',#406,#408,#413,.T.) ;
#429=EDGE_CURVE('',#117,#406,#428,.T.) ;
#434=EDGE_CURVE('',#408,#124,#433,.T.) ;
#455=EDGE_CURVE('',#452,#454,#450,.T.) ;
#460=EDGE_CURVE('',#452,#454,#459,.T.) ;
#475=EDGE_CURVE('',#103,#452,#474,.T.) ;
#480=EDGE_CURVE('',#454,#110,#479,.T.) ;
#499=EDGE_CURVE('',#203,#498,#496,.T.) ;
#506=EDGE_CURVE('',#201,#505,#503,.T.) ;
#511=EDGE_CURVE('',#505,#498,#510,.T.) ;
#528=EDGE_CURVE('',#498,#505,#527,.T.) ;
#545=EDGE_CURVE('',#278,#271,#544,.T.) ;
#50=EDGE_LOOP('',(#51,#52)) ;
#79=EDGE_LOOP('',(#80,#81,#82,#83)) ;
#180=EDGE_LOOP('',(#181,#182,#183,#184,#185,#186,#187,#188,#189,#190,#191,#192,#193,#194)) ;
#210=EDGE_LOOP('',(#211,#212)) ;
#239=EDGE_LOOP('',(#240,#241,#242,#243)) ;
#256=EDGE_LOOP('',(#257,#258)) ;
#304=EDGE_LOOP('',(#305,#306,#307,#308,#309,#310,#311,#312,#313,#314,#315,#316,#317,#318,#319,#320)) ;
#333=EDGE_LOOP('',(#334,#335)) ;
#343=EDGE_LOOP('',(#344,#345,#346,#347)) ;
#369=EDGE_LOOP('',(#370,#371)) ;
#389=EDGE_LOOP('',(#390,#391,#392,#393)) ;
#415=EDGE_LOOP('',(#416,#417)) ;
#435=EDGE_LOOP('',(#436,#437,#438,#439)) ;
#461=EDGE_LOOP('',(#462,#463)) ;
#481=EDGE_LOOP('',(#482,#483,#484,#485)) ;
#512=EDGE_LOOP('',(#513,#514,#515,#516)) ;
#529=EDGE_LOOP('',(#530,#531,#532,#533)) ;
#546=EDGE_LOOP('',(#547,#548)) ;
#550=EDGE_LOOP('',(#551,#552)) ;
#560=EDGE_LOOP('',(#561,#562,#563,#564,#565,#566,#567,#568,#569,#570,#571,#572,#573,#574,#575,#576)) ;
#53=FACE_OUTER_BOUND('',#50,.T.) ;
#84=FACE_OUTER_BOUND('',#79,.T.) ;
#195=FACE_OUTER_BOUND('',#180,.T.) ;
#244=FACE_OUTER_BOUND('',#239,.T.) ;
#259=FACE_OUTER_BOUND('',#256,.T.) ;
#321=FACE_OUTER_BOUND('',#304,.T.) ;
#336=FACE_OUTER_BOUND('',#333,.T.) ;
#348=FACE_OUTER_BOUND('',#343,.T.) ;
#372=FACE_OUTER_BOUND('',#369,.T.) ;
#394=FACE_OUTER_BOUND('',#389,.T.) ;
#418=FACE_OUTER_BOUND('',#415,.T.) ;
#440=FACE_OUTER_BOUND('',#435,.T.) ;
#464=FACE_OUTER_BOUND('',#461,.T.) ;
#486=FACE_OUTER_BOUND('',#481,.T.) ;
#517=FACE_OUTER_BOUND('',#512,.T.) ;
#534=FACE_OUTER_BOUND('',#529,.T.) ;
#549=FACE_OUTER_BOUND('',#546,.T.) ;
#577=FACE_OUTER_BOUND('',#560,.T.) ;
#48=LINE('Line',#45,#47) ;
#63=LINE('Line',#60,#62) ;
#70=LINE('Line',#67,#69) ;
#77=LINE('Line',#74,#76) ;
#108=LINE('Line',#105,#107) ;
#122=LINE('Line',#119,#121) ;
#136=LINE('Line',#133,#135) ;
#157=LINE('Line',#154,#156) ;
#171=LINE('Line',#168,#170) ;
#223=LINE('Line',#220,#222) ;
#230=LINE('Line',#227,#229) ;
#237=LINE('Line',#234,#236) ;
#269=LINE('Line',#266,#268) ;
#283=LINE('Line',#280,#282) ;
#288=LINE('Line',#285,#287) ;
#302=LINE('Line',#299,#301) ;
#331=LINE('Line',#328,#330) ;
#367=LINE('Line',#364,#366) ;
#382=LINE('Line',#379,#381) ;
#387=LINE('Line',#384,#386) ;
#413=LINE('Line',#410,#412) ;
#428=LINE('Line',#425,#427) ;
#433=LINE('Line',#430,#432) ;
#459=LINE('Line',#456,#458) ;
#474=LINE('Line',#471,#473) ;
#479=LINE('Line',#476,#478) ;
#496=LINE('Line',#493,#495) ;
#503=LINE('Line',#500,#502) ;
#35=PLANE('',#34) ;
#59=PLANE('',#58) ;
#90=PLANE('',#89) ;
#219=PLANE('',#218) ;
#250=PLANE('',#249) ;
#327=PLANE('',#326) ;
#342=PLANE('',#341) ;
#354=PLANE('',#353) ;
#378=PLANE('',#377) ;
#400=PLANE('',#399) ;
#424=PLANE('',#423) ;
#446=PLANE('',#445) ;
#470=PLANE('',#469) ;
#540=PLANE('',#539) ;
#9=PRODUCT_CATEGORY_RELATIONSHIP(' ',' ',#7,#8) ;
#6=PRODUCT_DEFINITION_FORMATION_WITH_SPECIFIED_SOURCE('',' ',#5,.NOT_KNOWN.) ;
#20=SHAPE_DEFINITION_REPRESENTATION(#11,#19) ;
#41=VERTEX_POINT('',#40) ;
#43=VERTEX_POINT('',#42) ;
#65=VERTEX_POINT('',#64) ;
#72=VERTEX_POINT('',#71) ;
#96=VERTEX_POINT('',#95) ;
#103=VERTEX_POINT('',#102) ;
#110=VERTEX_POINT('',#109) ;
#117=VERTEX_POINT('',#116) ;
#124=VERTEX_POINT('',#123) ;
#131=VERTEX_POINT('',#130) ;
#138=VERTEX_POINT('',#137) ;
#145=VERTEX_POINT('',#144) ;
#152=VERTEX_POINT('',#151) ;
#159=VERTEX_POINT('',#158) ;
#166=VERTEX_POINT('',#165) ;
#173=VERTEX_POINT('',#172) ;
#201=VERTEX_POINT('',#200) ;
#203=VERTEX_POINT('',#202) ;
#225=VERTEX_POINT('',#224) ;
#232=VERTEX_POINT('',#231) ;
#271=VERTEX_POINT('',#270) ;
#278=VERTEX_POINT('',#277) ;
#290=VERTEX_POINT('',#289) ;
#297=VERTEX_POINT('',#296) ;
#360=VERTEX_POINT('',#359) ;
#362=VERTEX_POINT('',#361) ;
#406=VERTEX_POINT('',#405) ;
#408=VERTEX_POINT('',#407) ;
#452=VERTEX_POINT('',#451) ;
#454=VERTEX_POINT('',#453) ;
#498=VERTEX_POINT('',#497) ;
#505=VERTEX_POINT('',#504) ;
#12=(LENGTH_UNIT()NAMED_UNIT(*)SI_UNIT(.MILLI.,.METRE.)) ;
#13=(NAMED_UNIT(*)PLANE_ANGLE_UNIT()SI_UNIT($,.RADIAN.)) ;
#14=(NAMED_UNIT(*)SI_UNIT($,.STERADIAN.)SOLID_ANGLE_UNIT()) ;
#16=(GEOMETRIC_REPRESENTATION_CONTEXT(3)GLOBAL_UNCERTAINTY_ASSIGNED_CONTEXT((#15))GLOBAL_UNIT_ASSIGNED_CONTEXT((#12,#13,#14))REPRESENTATION_CONTEXT(' ',' ')) ;
ENDSEC;
END-ISO-10303-21;
