ISO-10303-21;
HEADER;
FILE_DESCRIPTION(('CATIA V5R24 STEP','CAx-IF Rec.Pracs.--- Model Styling and Organization---1.2---2011-12-15'),'2;1');

FILE_NAME ('427637_1', '2017-02-15T08:42:16+00:00', ('Weidmueller Interface'), ('Weidmueller'), 'CATIA Version 5-6 Release 2014 SP4 HF52', 'CATIA V5 STEP AP214', 'none');

FILE_SCHEMA(('AUTOMOTIVE_DESIGN { 1 0 10303 214 1 1 1 1 }'));

ENDSEC;
DATA;
#5=PRODUCT('v5-standard_part','','',(#2)) ;
#2=PRODUCT_CONTEXT(' ',#1,'mechanical') ;
#1=APPLICATION_CONTEXT('automotive design') ;
#10=PRODUCT_DEFINITION('',' ',#6,#3) ;
#3=PRODUCT_DEFINITION_CONTEXT('part definition',#1,' ') ;
#11=PRODUCT_DEFINITION_SHAPE(' ',' ',#10) ;
#369=MECHANICAL_DESIGN_GEOMETRIC_PRESENTATION_REPRESENTATION(' ',(#46),#16) ;
#19=SHAPE_REPRESENTATION(' ',(#18),#16) ;
#18=AXIS2_PLACEMENT_3D(' ',#17,$,$) ;
#24=AXIS2_PLACEMENT_3D('Plane Axis2P3D',#21,#22,#23) ;
#31=AXIS2_PLACEMENT_3D('Plane Axis2P3D',#28,#29,#30) ;
#36=AXIS2_PLACEMENT_3D('Plane Axis2P3D',#33,#34,#35) ;
#52=AXIS2_PLACEMENT_3D('Cylinder Axis2P3D',#49,#50,#51) ;
#65=AXIS2_PLACEMENT_3D('Circle Axis2P3D',#63,#64,$) ;
#79=AXIS2_PLACEMENT_3D('Circle Axis2P3D',#77,#78,$) ;
#91=AXIS2_PLACEMENT_3D('Circle Axis2P3D',#89,#90,$) ;
#96=AXIS2_PLACEMENT_3D('Circle Axis2P3D',#94,#95,$) ;
#109=AXIS2_PLACEMENT_3D('Plane Axis2P3D',#106,#107,#108) ;
#119=AXIS2_PLACEMENT_3D('Cylinder Axis2P3D',#116,#117,#118) ;
#132=AXIS2_PLACEMENT_3D('Circle Axis2P3D',#130,#131,$) ;
#146=AXIS2_PLACEMENT_3D('Circle Axis2P3D',#144,#145,$) ;
#158=AXIS2_PLACEMENT_3D('Circle Axis2P3D',#156,#157,$) ;
#163=AXIS2_PLACEMENT_3D('Circle Axis2P3D',#161,#162,$) ;
#181=AXIS2_PLACEMENT_3D('Plane Axis2P3D',#178,#179,#180) ;
#237=AXIS2_PLACEMENT_3D('Plane Axis2P3D',#234,#235,#236) ;
#285=AXIS2_PLACEMENT_3D('Plane Axis2P3D',#282,#283,#284) ;
#307=AXIS2_PLACEMENT_3D('Plane Axis2P3D',#304,#305,#306) ;
#324=AXIS2_PLACEMENT_3D('Plane Axis2P3D',#321,#322,#323) ;
#341=AXIS2_PLACEMENT_3D('Plane Axis2P3D',#338,#339,#340) ;
#358=AXIS2_PLACEMENT_3D('Plane Axis2P3D',#355,#356,#357) ;
#17=CARTESIAN_POINT(' ',(0.,0.,0.)) ;
#21=CARTESIAN_POINT('Axis2P3D Location',(0.,0.,0.)) ;
#28=CARTESIAN_POINT('Axis2P3D Location',(0.,0.,0.)) ;
#33=CARTESIAN_POINT('Axis2P3D Location',(0.,0.,0.)) ;
#49=CARTESIAN_POINT('Axis2P3D Location',(1.25,49.5,12.)) ;
#54=CARTESIAN_POINT('Line Origine',(1.25,48.5,12.)) ;
#58=CARTESIAN_POINT('Vertex',(2.5,48.5,12.)) ;
#60=CARTESIAN_POINT('Vertex',(-2.22044604925E-015,48.5,12.)) ;
#63=CARTESIAN_POINT('Axis2P3D Location',(2.5,49.5,12.)) ;
#67=CARTESIAN_POINT('Vertex',(2.5,50.5,12.)) ;
#70=CARTESIAN_POINT('Line Origine',(1.25,50.5,12.)) ;
#74=CARTESIAN_POINT('Vertex',(-2.22044604925E-015,50.5,12.)) ;
#77=CARTESIAN_POINT('Axis2P3D Location',(-2.22044604925E-015,49.5,12.)) ;
#89=CARTESIAN_POINT('Axis2P3D Location',(2.5,49.5,12.)) ;
#94=CARTESIAN_POINT('Axis2P3D Location',(-2.22044604925E-015,49.5,12.)) ;
#106=CARTESIAN_POINT('Axis2P3D Location',(0.,52.,6.83495623696E-015)) ;
#116=CARTESIAN_POINT('Axis2P3D Location',(1.25,2.5,12.)) ;
#121=CARTESIAN_POINT('Line Origine',(1.25,1.5,12.)) ;
#125=CARTESIAN_POINT('Vertex',(2.5,1.5,12.)) ;
#127=CARTESIAN_POINT('Vertex',(1.33226762955E-015,1.5,12.)) ;
#130=CARTESIAN_POINT('Axis2P3D Location',(2.5,2.5,12.)) ;
#134=CARTESIAN_POINT('Vertex',(2.5,3.5,12.)) ;
#137=CARTESIAN_POINT('Line Origine',(1.25,3.5,12.)) ;
#141=CARTESIAN_POINT('Vertex',(1.33226762955E-015,3.5,12.)) ;
#144=CARTESIAN_POINT('Axis2P3D Location',(1.33226762955E-015,2.5,12.)) ;
#156=CARTESIAN_POINT('Axis2P3D Location',(2.5,2.5,12.)) ;
#161=CARTESIAN_POINT('Axis2P3D Location',(1.33226762955E-015,2.5,12.)) ;
#178=CARTESIAN_POINT('Axis2P3D Location',(2.5,52.,7.14111793675E-015)) ;
#183=CARTESIAN_POINT('Line Origine',(2.5,26.,7.14111793675E-015)) ;
#187=CARTESIAN_POINT('Vertex',(2.5,52.,7.14111793675E-015)) ;
#189=CARTESIAN_POINT('Vertex',(2.5,0.,7.14111793675E-015)) ;
#192=CARTESIAN_POINT('Line Origine',(2.5,0.,11.)) ;
#196=CARTESIAN_POINT('Vertex',(2.5,0.,22.)) ;
#199=CARTESIAN_POINT('Line Origine',(2.5,24.424533039,22.)) ;
#203=CARTESIAN_POINT('Vertex',(2.5,48.8490660781,22.)) ;
#206=CARTESIAN_POINT('Line Origine',(2.5,50.424533039,19.75)) ;
#210=CARTESIAN_POINT('Vertex',(2.5,52.,17.5)) ;
#213=CARTESIAN_POINT('Line Origine',(2.5,52.,8.75)) ;
#234=CARTESIAN_POINT('Axis2P3D Location',(4.,52.,7.32481495662E-015)) ;
#239=CARTESIAN_POINT('Line Origine',(4.,52.,8.75)) ;
#243=CARTESIAN_POINT('Vertex',(4.,52.,17.5)) ;
#245=CARTESIAN_POINT('Vertex',(4.,52.,7.32481495662E-015)) ;
#248=CARTESIAN_POINT('Line Origine',(4.,50.424533039,19.75)) ;
#252=CARTESIAN_POINT('Vertex',(4.,48.8490660781,22.)) ;
#255=CARTESIAN_POINT('Line Origine',(4.,24.424533039,22.)) ;
#259=CARTESIAN_POINT('Vertex',(4.,0.,22.)) ;
#262=CARTESIAN_POINT('Line Origine',(4.,0.,11.)) ;
#266=CARTESIAN_POINT('Vertex',(4.,0.,7.32481495662E-015)) ;
#269=CARTESIAN_POINT('Line Origine',(4.,26.,7.32481495662E-015)) ;
#282=CARTESIAN_POINT('Axis2P3D Location',(4.,52.,17.5)) ;
#287=CARTESIAN_POINT('Line Origine',(3.25,52.,17.5)) ;
#292=CARTESIAN_POINT('Line Origine',(3.25,52.,7.1054273576E-015)) ;
#304=CARTESIAN_POINT('Axis2P3D Location',(4.,52.,17.5)) ;
#309=CARTESIAN_POINT('Line Origine',(3.25,48.8490660781,22.)) ;
#321=CARTESIAN_POINT('Axis2P3D Location',(4.,8.881784197E-016,22.)) ;
#326=CARTESIAN_POINT('Line Origine',(3.25,8.881784197E-016,22.)) ;
#338=CARTESIAN_POINT('Axis2P3D Location',(4.,0.,8.06207895865E-015)) ;
#343=CARTESIAN_POINT('Line Origine',(3.25,-1.124819837E-032,8.06207895865E-015)) ;
#355=CARTESIAN_POINT('Axis2P3D Location',(4.,52.,7.32481495662E-015)) ;
#22=DIRECTION('Axis2P3D Direction',(0.,0.,1.)) ;
#23=DIRECTION('Axis2P3D XDirection',(1.,0.,0.)) ;
#29=DIRECTION('Axis2P3D Direction',(1.,0.,0.)) ;
#30=DIRECTION('Axis2P3D XDirection',(0.,1.,0.)) ;
#34=DIRECTION('Axis2P3D Direction',(0.,1.,0.)) ;
#35=DIRECTION('Axis2P3D XDirection',(0.,0.,1.)) ;
#50=DIRECTION('Axis2P3D Direction',(-1.,0.,0.)) ;
#51=DIRECTION('Axis2P3D XDirection',(0.,-1.,0.)) ;
#55=DIRECTION('Vector Direction',(-1.,0.,0.)) ;
#64=DIRECTION('Axis2P3D Direction',(-1.,0.,0.)) ;
#71=DIRECTION('Vector Direction',(-1.,0.,0.)) ;
#78=DIRECTION('Axis2P3D Direction',(-1.,0.,0.)) ;
#90=DIRECTION('Axis2P3D Direction',(-1.,0.,0.)) ;
#95=DIRECTION('Axis2P3D Direction',(-1.,0.,0.)) ;
#107=DIRECTION('Axis2P3D Direction',(-1.,0.,0.)) ;
#108=DIRECTION('Axis2P3D XDirection',(0.,-1.,0.)) ;
#117=DIRECTION('Axis2P3D Direction',(-1.,0.,0.)) ;
#118=DIRECTION('Axis2P3D XDirection',(0.,-1.,0.)) ;
#122=DIRECTION('Vector Direction',(-1.,0.,0.)) ;
#131=DIRECTION('Axis2P3D Direction',(-1.,0.,0.)) ;
#138=DIRECTION('Vector Direction',(-1.,0.,0.)) ;
#145=DIRECTION('Axis2P3D Direction',(-1.,0.,0.)) ;
#157=DIRECTION('Axis2P3D Direction',(-1.,0.,0.)) ;
#162=DIRECTION('Axis2P3D Direction',(-1.,0.,0.)) ;
#179=DIRECTION('Axis2P3D Direction',(-1.,0.,0.)) ;
#180=DIRECTION('Axis2P3D XDirection',(0.,-1.,0.)) ;
#184=DIRECTION('Vector Direction',(0.,-1.,0.)) ;
#193=DIRECTION('Vector Direction',(0.,0.,1.)) ;
#200=DIRECTION('Vector Direction',(0.,1.,0.)) ;
#207=DIRECTION('Vector Direction',(0.,-0.573576436351,0.819152044289)) ;
#214=DIRECTION('Vector Direction',(0.,0.,-1.)) ;
#235=DIRECTION('Axis2P3D Direction',(-1.,0.,0.)) ;
#236=DIRECTION('Axis2P3D XDirection',(0.,-1.,0.)) ;
#240=DIRECTION('Vector Direction',(0.,0.,-1.)) ;
#249=DIRECTION('Vector Direction',(0.,-0.573576436351,0.819152044289)) ;
#256=DIRECTION('Vector Direction',(0.,1.,0.)) ;
#263=DIRECTION('Vector Direction',(0.,0.,1.)) ;
#270=DIRECTION('Vector Direction',(0.,-1.,0.)) ;
#283=DIRECTION('Axis2P3D Direction',(-1.49975978266E-032,1.,0.)) ;
#284=DIRECTION('Axis2P3D XDirection',(0.,0.,-1.)) ;
#288=DIRECTION('Vector Direction',(-1.,0.,0.)) ;
#293=DIRECTION('Vector Direction',(-1.,0.,0.)) ;
#305=DIRECTION('Axis2P3D Direction',(1.22853129191E-032,-0.819152044289,-0.573576436351)) ;
#306=DIRECTION('Axis2P3D XDirection',(1.23259516441E-032,-0.573576436351,0.819152044289)) ;
#310=DIRECTION('Vector Direction',(-1.,0.,0.)) ;
#322=DIRECTION('Axis2P3D Direction',(0.,-0.,1.)) ;
#323=DIRECTION('Axis2P3D XDirection',(0.,1.,0.)) ;
#327=DIRECTION('Vector Direction',(-1.,0.,0.)) ;
#339=DIRECTION('Axis2P3D Direction',(1.49975978266E-032,-1.,0.)) ;
#340=DIRECTION('Axis2P3D XDirection',(0.,0.,1.)) ;
#344=DIRECTION('Vector Direction',(-1.,-1.49975978266E-032,0.)) ;
#356=DIRECTION('Axis2P3D Direction',(0.,-0.,-1.)) ;
#357=DIRECTION('Axis2P3D XDirection',(0.,-1.,0.)) ;
#47=PRESENTATION_LAYER_ASSIGNMENT('1',' ',(#38)) ;
#8=PRODUCT_RELATED_PRODUCT_CATEGORY('part',$,(#5)) ;
#7=PRODUCT_CATEGORY('part','specification') ;
#46=STYLED_ITEM(' ',(#45),#38) ;
#45=PRESENTATION_STYLE_ASSIGNMENT((#44)) ;
#44=SURFACE_STYLE_USAGE(.BOTH.,#43) ;
#43=SURFACE_SIDE_STYLE(' ',(#42)) ;
#42=SURFACE_STYLE_FILL_AREA(#41) ;
#41=FILL_AREA_STYLE(' ',(#40)) ;
#40=FILL_AREA_STYLE_COLOUR(' ',#39) ;
#56=VECTOR('Line Direction',#55,1.) ;
#72=VECTOR('Line Direction',#71,1.) ;
#123=VECTOR('Line Direction',#122,1.) ;
#139=VECTOR('Line Direction',#138,1.) ;
#185=VECTOR('Line Direction',#184,1.) ;
#194=VECTOR('Line Direction',#193,1.) ;
#201=VECTOR('Line Direction',#200,1.) ;
#208=VECTOR('Line Direction',#207,1.) ;
#215=VECTOR('Line Direction',#214,1.) ;
#241=VECTOR('Line Direction',#240,1.) ;
#250=VECTOR('Line Direction',#249,1.) ;
#257=VECTOR('Line Direction',#256,1.) ;
#264=VECTOR('Line Direction',#263,1.) ;
#271=VECTOR('Line Direction',#270,1.) ;
#289=VECTOR('Line Direction',#288,1.) ;
#294=VECTOR('Line Direction',#293,1.) ;
#311=VECTOR('Line Direction',#310,1.) ;
#328=VECTOR('Line Direction',#327,1.) ;
#345=VECTOR('Line Direction',#344,1.) ;
#15=UNCERTAINTY_MEASURE_WITH_UNIT(LENGTH_MEASURE(0.005),#12,'distance_accuracy_value','CONFUSED CURVE UNCERTAINTY') ;
#368=SHAPE_REPRESENTATION_RELATIONSHIP(' ',' ',#19,#367) ;
#83=ORIENTED_EDGE('',*,*,#62,.F.) ;
#84=ORIENTED_EDGE('',*,*,#69,.T.) ;
#85=ORIENTED_EDGE('',*,*,#76,.T.) ;
#86=ORIENTED_EDGE('',*,*,#81,.F.) ;
#100=ORIENTED_EDGE('',*,*,#76,.F.) ;
#101=ORIENTED_EDGE('',*,*,#93,.T.) ;
#102=ORIENTED_EDGE('',*,*,#62,.T.) ;
#103=ORIENTED_EDGE('',*,*,#98,.F.) ;
#112=ORIENTED_EDGE('',*,*,#81,.T.) ;
#113=ORIENTED_EDGE('',*,*,#98,.T.) ;
#150=ORIENTED_EDGE('',*,*,#129,.F.) ;
#151=ORIENTED_EDGE('',*,*,#136,.T.) ;
#152=ORIENTED_EDGE('',*,*,#143,.T.) ;
#153=ORIENTED_EDGE('',*,*,#148,.F.) ;
#167=ORIENTED_EDGE('',*,*,#143,.F.) ;
#168=ORIENTED_EDGE('',*,*,#160,.T.) ;
#169=ORIENTED_EDGE('',*,*,#129,.T.) ;
#170=ORIENTED_EDGE('',*,*,#165,.F.) ;
#174=ORIENTED_EDGE('',*,*,#148,.T.) ;
#175=ORIENTED_EDGE('',*,*,#165,.T.) ;
#219=ORIENTED_EDGE('',*,*,#191,.T.) ;
#220=ORIENTED_EDGE('',*,*,#198,.T.) ;
#221=ORIENTED_EDGE('',*,*,#205,.T.) ;
#222=ORIENTED_EDGE('',*,*,#212,.T.) ;
#223=ORIENTED_EDGE('',*,*,#217,.T.) ;
#226=ORIENTED_EDGE('',*,*,#69,.F.) ;
#227=ORIENTED_EDGE('',*,*,#93,.F.) ;
#230=ORIENTED_EDGE('',*,*,#136,.F.) ;
#231=ORIENTED_EDGE('',*,*,#160,.F.) ;
#275=ORIENTED_EDGE('',*,*,#247,.F.) ;
#276=ORIENTED_EDGE('',*,*,#254,.F.) ;
#277=ORIENTED_EDGE('',*,*,#261,.F.) ;
#278=ORIENTED_EDGE('',*,*,#268,.F.) ;
#279=ORIENTED_EDGE('',*,*,#273,.F.) ;
#298=ORIENTED_EDGE('',*,*,#291,.F.) ;
#299=ORIENTED_EDGE('',*,*,#247,.T.) ;
#300=ORIENTED_EDGE('',*,*,#296,.T.) ;
#301=ORIENTED_EDGE('',*,*,#217,.F.) ;
#315=ORIENTED_EDGE('',*,*,#313,.F.) ;
#316=ORIENTED_EDGE('',*,*,#254,.T.) ;
#317=ORIENTED_EDGE('',*,*,#291,.T.) ;
#318=ORIENTED_EDGE('',*,*,#212,.F.) ;
#332=ORIENTED_EDGE('',*,*,#330,.F.) ;
#333=ORIENTED_EDGE('',*,*,#261,.T.) ;
#334=ORIENTED_EDGE('',*,*,#313,.T.) ;
#335=ORIENTED_EDGE('',*,*,#205,.F.) ;
#349=ORIENTED_EDGE('',*,*,#347,.F.) ;
#350=ORIENTED_EDGE('',*,*,#268,.T.) ;
#351=ORIENTED_EDGE('',*,*,#330,.T.) ;
#352=ORIENTED_EDGE('',*,*,#198,.F.) ;
#361=ORIENTED_EDGE('',*,*,#296,.F.) ;
#362=ORIENTED_EDGE('',*,*,#273,.T.) ;
#363=ORIENTED_EDGE('',*,*,#347,.T.) ;
#364=ORIENTED_EDGE('',*,*,#191,.F.) ;
#228=FACE_BOUND('',#225,.T.) ;
#232=FACE_BOUND('',#229,.T.) ;
#48=CLOSED_SHELL('Closed Shell',(#88,#105,#115,#155,#172,#177,#233,#281,#303,#320,#337,#354,#366)) ;
#367=ADVANCED_BREP_SHAPE_REPRESENTATION('NONE',(#38),#16) ;
#88=ADVANCED_FACE('V1',(#87),#53,.T.) ;
#105=ADVANCED_FACE('V1',(#104),#53,.T.) ;
#115=ADVANCED_FACE('V1',(#114),#110,.T.) ;
#155=ADVANCED_FACE('V1',(#154),#120,.T.) ;
#172=ADVANCED_FACE('V1',(#171),#120,.T.) ;
#177=ADVANCED_FACE('V1',(#176),#110,.T.) ;
#233=ADVANCED_FACE('V1',(#224,#228,#232),#182,.T.) ;
#281=ADVANCED_FACE('V1',(#280),#238,.F.) ;
#303=ADVANCED_FACE('V1',(#302),#286,.T.) ;
#320=ADVANCED_FACE('V1',(#319),#308,.F.) ;
#337=ADVANCED_FACE('V1',(#336),#325,.T.) ;
#354=ADVANCED_FACE('V1',(#353),#342,.T.) ;
#366=ADVANCED_FACE('V1',(#365),#359,.T.) ;
#4=APPLICATION_PROTOCOL_DEFINITION('international standard','automotive_design',2001,#1) ;
#38=MANIFOLD_SOLID_BREP('V1',#48) ;
#66=CIRCLE('generated circle',#65,1.) ;
#80=CIRCLE('generated circle',#79,1.) ;
#92=CIRCLE('generated circle',#91,1.) ;
#97=CIRCLE('generated circle',#96,1.) ;
#133=CIRCLE('generated circle',#132,1.) ;
#147=CIRCLE('generated circle',#146,1.) ;
#159=CIRCLE('generated circle',#158,1.) ;
#164=CIRCLE('generated circle',#163,1.) ;
#39=COLOUR_RGB('Colour',0.83137254902,0.658823529412,0.572549019608) ;
#26=CONSTRUCTIVE_GEOMETRY_REPRESENTATION('supplemental geometry',(#25,#32,#37),#16) ;
#27=CONSTRUCTIVE_GEOMETRY_REPRESENTATION_RELATIONSHIP('supplemental geometry','',#19,#26) ;
#53=CYLINDRICAL_SURFACE('generated cylinder',#52,1.) ;
#120=CYLINDRICAL_SURFACE('generated cylinder',#119,1.) ;
#62=EDGE_CURVE('',#59,#61,#57,.T.) ;
#69=EDGE_CURVE('',#59,#68,#66,.T.) ;
#76=EDGE_CURVE('',#68,#75,#73,.T.) ;
#81=EDGE_CURVE('',#61,#75,#80,.T.) ;
#93=EDGE_CURVE('',#68,#59,#92,.T.) ;
#98=EDGE_CURVE('',#75,#61,#97,.T.) ;
#129=EDGE_CURVE('',#126,#128,#124,.T.) ;
#136=EDGE_CURVE('',#126,#135,#133,.T.) ;
#143=EDGE_CURVE('',#135,#142,#140,.T.) ;
#148=EDGE_CURVE('',#128,#142,#147,.T.) ;
#160=EDGE_CURVE('',#135,#126,#159,.T.) ;
#165=EDGE_CURVE('',#142,#128,#164,.T.) ;
#191=EDGE_CURVE('',#188,#190,#186,.T.) ;
#198=EDGE_CURVE('',#190,#197,#195,.T.) ;
#205=EDGE_CURVE('',#197,#204,#202,.T.) ;
#212=EDGE_CURVE('',#204,#211,#209,.F.) ;
#217=EDGE_CURVE('',#211,#188,#216,.T.) ;
#247=EDGE_CURVE('',#244,#246,#242,.T.) ;
#254=EDGE_CURVE('',#253,#244,#251,.F.) ;
#261=EDGE_CURVE('',#260,#253,#258,.T.) ;
#268=EDGE_CURVE('',#267,#260,#265,.T.) ;
#273=EDGE_CURVE('',#246,#267,#272,.T.) ;
#291=EDGE_CURVE('',#244,#211,#290,.T.) ;
#296=EDGE_CURVE('',#246,#188,#295,.T.) ;
#313=EDGE_CURVE('',#253,#204,#312,.T.) ;
#330=EDGE_CURVE('',#260,#197,#329,.T.) ;
#347=EDGE_CURVE('',#267,#190,#346,.T.) ;
#82=EDGE_LOOP('',(#83,#84,#85,#86)) ;
#99=EDGE_LOOP('',(#100,#101,#102,#103)) ;
#111=EDGE_LOOP('',(#112,#113)) ;
#149=EDGE_LOOP('',(#150,#151,#152,#153)) ;
#166=EDGE_LOOP('',(#167,#168,#169,#170)) ;
#173=EDGE_LOOP('',(#174,#175)) ;
#218=EDGE_LOOP('',(#219,#220,#221,#222,#223)) ;
#225=EDGE_LOOP('',(#226,#227)) ;
#229=EDGE_LOOP('',(#230,#231)) ;
#274=EDGE_LOOP('',(#275,#276,#277,#278,#279)) ;
#297=EDGE_LOOP('',(#298,#299,#300,#301)) ;
#314=EDGE_LOOP('',(#315,#316,#317,#318)) ;
#331=EDGE_LOOP('',(#332,#333,#334,#335)) ;
#348=EDGE_LOOP('',(#349,#350,#351,#352)) ;
#360=EDGE_LOOP('',(#361,#362,#363,#364)) ;
#87=FACE_OUTER_BOUND('',#82,.T.) ;
#104=FACE_OUTER_BOUND('',#99,.T.) ;
#114=FACE_OUTER_BOUND('',#111,.T.) ;
#154=FACE_OUTER_BOUND('',#149,.T.) ;
#171=FACE_OUTER_BOUND('',#166,.T.) ;
#176=FACE_OUTER_BOUND('',#173,.T.) ;
#224=FACE_OUTER_BOUND('',#218,.T.) ;
#280=FACE_OUTER_BOUND('',#274,.T.) ;
#302=FACE_OUTER_BOUND('',#297,.T.) ;
#319=FACE_OUTER_BOUND('',#314,.T.) ;
#336=FACE_OUTER_BOUND('',#331,.T.) ;
#353=FACE_OUTER_BOUND('',#348,.T.) ;
#365=FACE_OUTER_BOUND('',#360,.T.) ;
#57=LINE('Line',#54,#56) ;
#73=LINE('Line',#70,#72) ;
#124=LINE('Line',#121,#123) ;
#140=LINE('Line',#137,#139) ;
#186=LINE('Line',#183,#185) ;
#195=LINE('Line',#192,#194) ;
#202=LINE('Line',#199,#201) ;
#209=LINE('Line',#206,#208) ;
#216=LINE('Line',#213,#215) ;
#242=LINE('Line',#239,#241) ;
#251=LINE('Line',#248,#250) ;
#258=LINE('Line',#255,#257) ;
#265=LINE('Line',#262,#264) ;
#272=LINE('Line',#269,#271) ;
#290=LINE('Line',#287,#289) ;
#295=LINE('Line',#292,#294) ;
#312=LINE('Line',#309,#311) ;
#329=LINE('Line',#326,#328) ;
#346=LINE('Line',#343,#345) ;
#25=PLANE('Referenz_xy',#24) ;
#32=PLANE('Referenz_yz',#31) ;
#37=PLANE('Referenz_xz',#36) ;
#110=PLANE('',#109) ;
#182=PLANE('',#181) ;
#238=PLANE('',#237) ;
#286=PLANE('',#285) ;
#308=PLANE('',#307) ;
#325=PLANE('',#324) ;
#342=PLANE('',#341) ;
#359=PLANE('',#358) ;
#9=PRODUCT_CATEGORY_RELATIONSHIP(' ',' ',#7,#8) ;
#6=PRODUCT_DEFINITION_FORMATION_WITH_SPECIFIED_SOURCE('',' ',#5,.NOT_KNOWN.) ;
#20=SHAPE_DEFINITION_REPRESENTATION(#11,#19) ;
#59=VERTEX_POINT('',#58) ;
#61=VERTEX_POINT('',#60) ;
#68=VERTEX_POINT('',#67) ;
#75=VERTEX_POINT('',#74) ;
#126=VERTEX_POINT('',#125) ;
#128=VERTEX_POINT('',#127) ;
#135=VERTEX_POINT('',#134) ;
#142=VERTEX_POINT('',#141) ;
#188=VERTEX_POINT('',#187) ;
#190=VERTEX_POINT('',#189) ;
#197=VERTEX_POINT('',#196) ;
#204=VERTEX_POINT('',#203) ;
#211=VERTEX_POINT('',#210) ;
#244=VERTEX_POINT('',#243) ;
#246=VERTEX_POINT('',#245) ;
#253=VERTEX_POINT('',#252) ;
#260=VERTEX_POINT('',#259) ;
#267=VERTEX_POINT('',#266) ;
#12=(LENGTH_UNIT()NAMED_UNIT(*)SI_UNIT(.MILLI.,.METRE.)) ;
#13=(NAMED_UNIT(*)PLANE_ANGLE_UNIT()SI_UNIT($,.RADIAN.)) ;
#14=(NAMED_UNIT(*)SI_UNIT($,.STERADIAN.)SOLID_ANGLE_UNIT()) ;
#16=(GEOMETRIC_REPRESENTATION_CONTEXT(3)GLOBAL_UNCERTAINTY_ASSIGNED_CONTEXT((#15))GLOBAL_UNIT_ASSIGNED_CONTEXT((#12,#13,#14))REPRESENTATION_CONTEXT(' ',' ')) ;
ENDSEC;
END-ISO-10303-21;
