ISO-10303-21;
HEADER;
FILE_DESCRIPTION(('CATIA V5R24 STEP','CAx-IF Rec.Pracs.--- Model Styling and Organization---1.2---2011-12-15'),'2;1');

FILE_NAME ('035233-1_1_0297300000_0297300000.stp','2018-08-27T06:32:59+00:00',('none'),('Weidmueller'),'CATIA Version 5-6 Release 2014 SP4 HF52','CATIA V5 STEP AP214','none');

FILE_SCHEMA(('AUTOMOTIVE_DESIGN { 1 0 10303 214 1 1 1 1 }'));

ENDSEC;
DATA;
#5=PRODUCT('0297300000','','QUERVERBINDUNGSLASCHE',(#2)) ;
#2=PRODUCT_CONTEXT(' ',#1,'mechanical') ;
#1=APPLICATION_CONTEXT('automotive design') ;
#10=PRODUCT_DEFINITION('',' ',#6,#3) ;
#3=PRODUCT_DEFINITION_CONTEXT('part definition',#1,' ') ;
#11=PRODUCT_DEFINITION_SHAPE(' ',' ',#10) ;
#587=MECHANICAL_DESIGN_GEOMETRIC_PRESENTATION_REPRESENTATION(' ',(#46),#16) ;
#19=SHAPE_REPRESENTATION(' ',(#18),#16) ;
#18=AXIS2_PLACEMENT_3D(' ',#17,$,$) ;
#24=AXIS2_PLACEMENT_3D('Plane Axis2P3D',#21,#22,#23) ;
#31=AXIS2_PLACEMENT_3D('Plane Axis2P3D',#28,#29,#30) ;
#36=AXIS2_PLACEMENT_3D('Plane Axis2P3D',#33,#34,#35) ;
#52=AXIS2_PLACEMENT_3D('Plane Axis2P3D',#49,#50,#51) ;
#92=AXIS2_PLACEMENT_3D('Plane Axis2P3D',#89,#90,#91) ;
#123=AXIS2_PLACEMENT_3D('Plane Axis2P3D',#120,#121,#122) ;
#154=AXIS2_PLACEMENT_3D('Plane Axis2P3D',#151,#152,#153) ;
#176=AXIS2_PLACEMENT_3D('Cylinder Axis2P3D',#173,#174,#175) ;
#189=AXIS2_PLACEMENT_3D('Circle Axis2P3D',#187,#188,$) ;
#203=AXIS2_PLACEMENT_3D('Circle Axis2P3D',#201,#202,$) ;
#216=AXIS2_PLACEMENT_3D('Plane Axis2P3D',#213,#214,#215) ;
#247=AXIS2_PLACEMENT_3D('Plane Axis2P3D',#244,#245,#246) ;
#278=AXIS2_PLACEMENT_3D('Cylinder Axis2P3D',#275,#276,#277) ;
#282=AXIS2_PLACEMENT_3D('Circle Axis2P3D',#280,#281,$) ;
#287=AXIS2_PLACEMENT_3D('Circle Axis2P3D',#285,#286,$) ;
#300=AXIS2_PLACEMENT_3D('Plane Axis2P3D',#297,#298,#299) ;
#325=AXIS2_PLACEMENT_3D('Circle Axis2P3D',#323,#324,$) ;
#339=AXIS2_PLACEMENT_3D('Circle Axis2P3D',#337,#338,$) ;
#359=AXIS2_PLACEMENT_3D('Circle Axis2P3D',#357,#358,$) ;
#373=AXIS2_PLACEMENT_3D('Circle Axis2P3D',#371,#372,$) ;
#386=AXIS2_PLACEMENT_3D('Plane Axis2P3D',#383,#384,#385) ;
#402=AXIS2_PLACEMENT_3D('Circle Axis2P3D',#400,#401,$) ;
#418=AXIS2_PLACEMENT_3D('Circle Axis2P3D',#416,#417,$) ;
#436=AXIS2_PLACEMENT_3D('Circle Axis2P3D',#434,#435,$) ;
#452=AXIS2_PLACEMENT_3D('Circle Axis2P3D',#450,#451,$) ;
#472=AXIS2_PLACEMENT_3D('Cylinder Axis2P3D',#469,#470,#471) ;
#518=AXIS2_PLACEMENT_3D('Cylinder Axis2P3D',#515,#516,#517) ;
#530=AXIS2_PLACEMENT_3D('Cylinder Axis2P3D',#527,#528,#529) ;
#576=AXIS2_PLACEMENT_3D('Cylinder Axis2P3D',#573,#574,#575) ;
#17=CARTESIAN_POINT(' ',(0.,0.,0.)) ;
#21=CARTESIAN_POINT('Axis2P3D Location',(0.,0.,0.)) ;
#28=CARTESIAN_POINT('Axis2P3D Location',(0.,0.,0.)) ;
#33=CARTESIAN_POINT('Axis2P3D Location',(0.,0.,0.)) ;
#49=CARTESIAN_POINT('Axis2P3D Location',(0.,0.,0.)) ;
#54=CARTESIAN_POINT('Line Origine',(0.,0.,0.4)) ;
#58=CARTESIAN_POINT('Vertex',(0.,0.,0.)) ;
#60=CARTESIAN_POINT('Vertex',(0.,0.,0.8)) ;
#63=CARTESIAN_POINT('Line Origine',(8.6,0.,0.)) ;
#67=CARTESIAN_POINT('Vertex',(17.2,0.,0.)) ;
#70=CARTESIAN_POINT('Line Origine',(17.2,0.,0.4)) ;
#74=CARTESIAN_POINT('Vertex',(17.2,0.,0.8)) ;
#77=CARTESIAN_POINT('Line Origine',(8.6,0.,0.8)) ;
#89=CARTESIAN_POINT('Axis2P3D Location',(17.2,4.63577100421E-016,0.)) ;
#94=CARTESIAN_POINT('Line Origine',(17.2,2.,0.)) ;
#98=CARTESIAN_POINT('Vertex',(17.2,4.,0.)) ;
#101=CARTESIAN_POINT('Line Origine',(17.2,4.,0.4)) ;
#105=CARTESIAN_POINT('Vertex',(17.2,4.,0.8)) ;
#108=CARTESIAN_POINT('Line Origine',(17.2,2.,0.8)) ;
#120=CARTESIAN_POINT('Axis2P3D Location',(17.2,4.,0.)) ;
#125=CARTESIAN_POINT('Line Origine',(8.6,4.,0.)) ;
#129=CARTESIAN_POINT('Vertex',(0.,4.,0.)) ;
#132=CARTESIAN_POINT('Line Origine',(0.,4.,0.4)) ;
#136=CARTESIAN_POINT('Vertex',(0.,4.,0.8)) ;
#139=CARTESIAN_POINT('Line Origine',(8.6,4.,0.8)) ;
#151=CARTESIAN_POINT('Axis2P3D Location',(0.,4.,0.)) ;
#156=CARTESIAN_POINT('Line Origine',(0.,2.,0.)) ;
#161=CARTESIAN_POINT('Line Origine',(0.,2.,0.8)) ;
#173=CARTESIAN_POINT('Axis2P3D Location',(2.5,2.,0.4)) ;
#178=CARTESIAN_POINT('Line Origine',(1.26509109648,3.275,0.4)) ;
#182=CARTESIAN_POINT('Vertex',(1.26509109648,3.275,0.8)) ;
#184=CARTESIAN_POINT('Vertex',(1.26509109648,3.275,0.)) ;
#187=CARTESIAN_POINT('Axis2P3D Location',(2.5,2.,0.8)) ;
#191=CARTESIAN_POINT('Vertex',(1.26509109648,0.725,0.8)) ;
#194=CARTESIAN_POINT('Line Origine',(1.26509109648,0.725,0.4)) ;
#198=CARTESIAN_POINT('Vertex',(1.26509109648,0.725,5.55111512313E-017)) ;
#201=CARTESIAN_POINT('Axis2P3D Location',(2.5,2.,0.)) ;
#213=CARTESIAN_POINT('Axis2P3D Location',(1.26509109648,3.275,0.8)) ;
#218=CARTESIAN_POINT('Line Origine',(3.73490890352,3.275,0.4)) ;
#222=CARTESIAN_POINT('Vertex',(3.73490890352,3.275,0.8)) ;
#224=CARTESIAN_POINT('Vertex',(3.73490890352,3.275,5.55111512313E-017)) ;
#227=CARTESIAN_POINT('Line Origine',(2.5,3.275,0.8)) ;
#232=CARTESIAN_POINT('Line Origine',(2.5,3.275,0.)) ;
#244=CARTESIAN_POINT('Axis2P3D Location',(3.73490890352,0.725,0.8)) ;
#249=CARTESIAN_POINT('Line Origine',(2.5,0.725,0.8)) ;
#253=CARTESIAN_POINT('Vertex',(3.73490890352,0.725,0.8)) ;
#256=CARTESIAN_POINT('Line Origine',(3.73490890352,0.725,0.4)) ;
#260=CARTESIAN_POINT('Vertex',(3.73490890352,0.725,0.)) ;
#263=CARTESIAN_POINT('Line Origine',(2.5,0.725,0.)) ;
#275=CARTESIAN_POINT('Axis2P3D Location',(2.5,2.,0.4)) ;
#280=CARTESIAN_POINT('Axis2P3D Location',(2.5,2.,0.8)) ;
#285=CARTESIAN_POINT('Axis2P3D Location',(2.5,2.,0.)) ;
#297=CARTESIAN_POINT('Axis2P3D Location',(0.,0.,0.)) ;
#314=CARTESIAN_POINT('Line Origine',(8.6,3.275,0.)) ;
#318=CARTESIAN_POINT('Vertex',(9.83490890352,3.275,0.)) ;
#320=CARTESIAN_POINT('Vertex',(7.36509109648,3.275,0.)) ;
#323=CARTESIAN_POINT('Axis2P3D Location',(8.6,2.,0.)) ;
#327=CARTESIAN_POINT('Vertex',(7.36509109648,0.725,5.55111512313E-017)) ;
#330=CARTESIAN_POINT('Line Origine',(8.6,0.725,0.)) ;
#334=CARTESIAN_POINT('Vertex',(9.83490890352,0.725,0.)) ;
#337=CARTESIAN_POINT('Axis2P3D Location',(8.6,2.,0.)) ;
#348=CARTESIAN_POINT('Line Origine',(14.7,3.275,0.)) ;
#352=CARTESIAN_POINT('Vertex',(15.9349089035,3.275,0.)) ;
#354=CARTESIAN_POINT('Vertex',(13.4650910965,3.275,0.)) ;
#357=CARTESIAN_POINT('Axis2P3D Location',(14.7,2.,0.)) ;
#361=CARTESIAN_POINT('Vertex',(13.4650910965,0.725,5.55111512313E-017)) ;
#364=CARTESIAN_POINT('Line Origine',(14.7,0.725,0.)) ;
#368=CARTESIAN_POINT('Vertex',(15.9349089035,0.725,0.)) ;
#371=CARTESIAN_POINT('Axis2P3D Location',(14.7,2.,0.)) ;
#383=CARTESIAN_POINT('Axis2P3D Location',(0.,0.,0.8)) ;
#400=CARTESIAN_POINT('Axis2P3D Location',(8.6,2.,0.8)) ;
#404=CARTESIAN_POINT('Vertex',(9.83490890352,0.725,0.8)) ;
#406=CARTESIAN_POINT('Vertex',(9.83490890352,3.275,0.8)) ;
#409=CARTESIAN_POINT('Line Origine',(8.6,0.725,0.8)) ;
#413=CARTESIAN_POINT('Vertex',(7.36509109648,0.725,0.8)) ;
#416=CARTESIAN_POINT('Axis2P3D Location',(8.6,2.,0.8)) ;
#420=CARTESIAN_POINT('Vertex',(7.36509109648,3.275,0.8)) ;
#423=CARTESIAN_POINT('Line Origine',(8.6,3.275,0.8)) ;
#434=CARTESIAN_POINT('Axis2P3D Location',(14.7,2.,0.8)) ;
#438=CARTESIAN_POINT('Vertex',(15.9349089035,0.725,0.8)) ;
#440=CARTESIAN_POINT('Vertex',(15.9349089035,3.275,0.8)) ;
#443=CARTESIAN_POINT('Line Origine',(14.7,0.725,0.8)) ;
#447=CARTESIAN_POINT('Vertex',(13.4650910965,0.725,0.8)) ;
#450=CARTESIAN_POINT('Axis2P3D Location',(14.7,2.,0.8)) ;
#454=CARTESIAN_POINT('Vertex',(13.4650910965,3.275,0.8)) ;
#457=CARTESIAN_POINT('Line Origine',(14.7,3.275,0.8)) ;
#469=CARTESIAN_POINT('Axis2P3D Location',(14.7,2.,0.4)) ;
#474=CARTESIAN_POINT('Line Origine',(13.4650910965,3.275,0.4)) ;
#479=CARTESIAN_POINT('Line Origine',(13.4650910965,0.725,0.4)) ;
#491=CARTESIAN_POINT('Line Origine',(15.9349089035,3.275,0.4)) ;
#503=CARTESIAN_POINT('Line Origine',(15.9349089035,0.725,0.4)) ;
#515=CARTESIAN_POINT('Axis2P3D Location',(14.7,2.,0.4)) ;
#527=CARTESIAN_POINT('Axis2P3D Location',(8.6,2.,0.4)) ;
#532=CARTESIAN_POINT('Line Origine',(7.36509109648,3.275,0.4)) ;
#537=CARTESIAN_POINT('Line Origine',(7.36509109648,0.725,0.4)) ;
#549=CARTESIAN_POINT('Line Origine',(9.83490890352,3.275,0.4)) ;
#561=CARTESIAN_POINT('Line Origine',(9.83490890352,0.725,0.4)) ;
#573=CARTESIAN_POINT('Axis2P3D Location',(8.6,2.,0.4)) ;
#22=DIRECTION('Axis2P3D Direction',(0.,0.,1.)) ;
#23=DIRECTION('Axis2P3D XDirection',(1.,0.,0.)) ;
#29=DIRECTION('Axis2P3D Direction',(1.,0.,0.)) ;
#30=DIRECTION('Axis2P3D XDirection',(0.,1.,0.)) ;
#34=DIRECTION('Axis2P3D Direction',(0.,1.,0.)) ;
#35=DIRECTION('Axis2P3D XDirection',(0.,0.,1.)) ;
#50=DIRECTION('Axis2P3D Direction',(0.,-1.,0.)) ;
#51=DIRECTION('Axis2P3D XDirection',(1.,0.,0.)) ;
#55=DIRECTION('Vector Direction',(0.,0.,1.)) ;
#64=DIRECTION('Vector Direction',(1.,0.,0.)) ;
#71=DIRECTION('Vector Direction',(0.,0.,1.)) ;
#78=DIRECTION('Vector Direction',(1.,0.,0.)) ;
#90=DIRECTION('Axis2P3D Direction',(1.,0.,0.)) ;
#91=DIRECTION('Axis2P3D XDirection',(0.,1.,0.)) ;
#95=DIRECTION('Vector Direction',(0.,1.,0.)) ;
#102=DIRECTION('Vector Direction',(0.,0.,1.)) ;
#109=DIRECTION('Vector Direction',(0.,1.,0.)) ;
#121=DIRECTION('Axis2P3D Direction',(0.,1.,-0.)) ;
#122=DIRECTION('Axis2P3D XDirection',(-1.,0.,0.)) ;
#126=DIRECTION('Vector Direction',(-1.,0.,0.)) ;
#133=DIRECTION('Vector Direction',(0.,0.,1.)) ;
#140=DIRECTION('Vector Direction',(-1.,0.,0.)) ;
#152=DIRECTION('Axis2P3D Direction',(-1.,0.,0.)) ;
#153=DIRECTION('Axis2P3D XDirection',(0.,-1.,0.)) ;
#157=DIRECTION('Vector Direction',(0.,-1.,0.)) ;
#162=DIRECTION('Vector Direction',(0.,-1.,0.)) ;
#174=DIRECTION('Axis2P3D Direction',(0.,0.,1.)) ;
#175=DIRECTION('Axis2P3D XDirection',(-0.695723325928,0.718309859155,0.)) ;
#179=DIRECTION('Vector Direction',(0.,0.,1.)) ;
#188=DIRECTION('Axis2P3D Direction',(0.,0.,1.)) ;
#195=DIRECTION('Vector Direction',(0.,0.,1.)) ;
#202=DIRECTION('Axis2P3D Direction',(0.,0.,1.)) ;
#214=DIRECTION('Axis2P3D Direction',(-0.,1.,0.)) ;
#215=DIRECTION('Axis2P3D XDirection',(1.,0.,0.)) ;
#219=DIRECTION('Vector Direction',(0.,0.,-1.)) ;
#228=DIRECTION('Vector Direction',(1.,0.,0.)) ;
#233=DIRECTION('Vector Direction',(1.,0.,0.)) ;
#245=DIRECTION('Axis2P3D Direction',(-0.,-1.,-0.)) ;
#246=DIRECTION('Axis2P3D XDirection',(-1.,0.,0.)) ;
#250=DIRECTION('Vector Direction',(-1.,0.,0.)) ;
#257=DIRECTION('Vector Direction',(0.,0.,-1.)) ;
#264=DIRECTION('Vector Direction',(-1.,0.,0.)) ;
#276=DIRECTION('Axis2P3D Direction',(0.,0.,1.)) ;
#277=DIRECTION('Axis2P3D XDirection',(0.695723325928,-0.718309859155,0.)) ;
#281=DIRECTION('Axis2P3D Direction',(0.,0.,1.)) ;
#286=DIRECTION('Axis2P3D Direction',(0.,0.,1.)) ;
#298=DIRECTION('Axis2P3D Direction',(0.,0.,1.)) ;
#299=DIRECTION('Axis2P3D XDirection',(1.,0.,0.)) ;
#315=DIRECTION('Vector Direction',(1.,0.,0.)) ;
#324=DIRECTION('Axis2P3D Direction',(0.,0.,1.)) ;
#331=DIRECTION('Vector Direction',(-1.,0.,0.)) ;
#338=DIRECTION('Axis2P3D Direction',(0.,0.,1.)) ;
#349=DIRECTION('Vector Direction',(1.,0.,0.)) ;
#358=DIRECTION('Axis2P3D Direction',(0.,0.,1.)) ;
#365=DIRECTION('Vector Direction',(-1.,0.,0.)) ;
#372=DIRECTION('Axis2P3D Direction',(0.,0.,1.)) ;
#384=DIRECTION('Axis2P3D Direction',(0.,0.,1.)) ;
#385=DIRECTION('Axis2P3D XDirection',(1.,0.,0.)) ;
#401=DIRECTION('Axis2P3D Direction',(0.,0.,1.)) ;
#410=DIRECTION('Vector Direction',(-1.,0.,0.)) ;
#417=DIRECTION('Axis2P3D Direction',(0.,0.,1.)) ;
#424=DIRECTION('Vector Direction',(1.,0.,0.)) ;
#435=DIRECTION('Axis2P3D Direction',(0.,0.,1.)) ;
#444=DIRECTION('Vector Direction',(-1.,0.,0.)) ;
#451=DIRECTION('Axis2P3D Direction',(0.,0.,1.)) ;
#458=DIRECTION('Vector Direction',(1.,0.,0.)) ;
#470=DIRECTION('Axis2P3D Direction',(0.,0.,1.)) ;
#471=DIRECTION('Axis2P3D XDirection',(-0.695723325928,0.718309859155,0.)) ;
#475=DIRECTION('Vector Direction',(0.,0.,1.)) ;
#480=DIRECTION('Vector Direction',(0.,0.,1.)) ;
#492=DIRECTION('Vector Direction',(0.,0.,-1.)) ;
#504=DIRECTION('Vector Direction',(0.,0.,-1.)) ;
#516=DIRECTION('Axis2P3D Direction',(0.,0.,1.)) ;
#517=DIRECTION('Axis2P3D XDirection',(0.695723325928,-0.718309859155,0.)) ;
#528=DIRECTION('Axis2P3D Direction',(0.,0.,1.)) ;
#529=DIRECTION('Axis2P3D XDirection',(-0.695723325928,0.718309859155,0.)) ;
#533=DIRECTION('Vector Direction',(0.,0.,1.)) ;
#538=DIRECTION('Vector Direction',(0.,0.,1.)) ;
#550=DIRECTION('Vector Direction',(0.,0.,-1.)) ;
#562=DIRECTION('Vector Direction',(0.,0.,-1.)) ;
#574=DIRECTION('Axis2P3D Direction',(0.,0.,1.)) ;
#575=DIRECTION('Axis2P3D XDirection',(0.695723325928,-0.718309859155,0.)) ;
#47=PRESENTATION_LAYER_ASSIGNMENT('1',' ',(#38)) ;
#8=PRODUCT_RELATED_PRODUCT_CATEGORY('part',$,(#5)) ;
#7=PRODUCT_CATEGORY('part','specification') ;
#46=STYLED_ITEM(' ',(#45),#38) ;
#45=PRESENTATION_STYLE_ASSIGNMENT((#44)) ;
#44=SURFACE_STYLE_USAGE(.BOTH.,#43) ;
#43=SURFACE_SIDE_STYLE(' ',(#42)) ;
#42=SURFACE_STYLE_FILL_AREA(#41) ;
#41=FILL_AREA_STYLE(' ',(#40)) ;
#40=FILL_AREA_STYLE_COLOUR(' ',#39) ;
#56=VECTOR('Line Direction',#55,1.) ;
#65=VECTOR('Line Direction',#64,1.) ;
#72=VECTOR('Line Direction',#71,1.) ;
#79=VECTOR('Line Direction',#78,1.) ;
#96=VECTOR('Line Direction',#95,1.) ;
#103=VECTOR('Line Direction',#102,1.) ;
#110=VECTOR('Line Direction',#109,1.) ;
#127=VECTOR('Line Direction',#126,1.) ;
#134=VECTOR('Line Direction',#133,1.) ;
#141=VECTOR('Line Direction',#140,1.) ;
#158=VECTOR('Line Direction',#157,1.) ;
#163=VECTOR('Line Direction',#162,1.) ;
#180=VECTOR('Line Direction',#179,1.) ;
#196=VECTOR('Line Direction',#195,1.) ;
#220=VECTOR('Line Direction',#219,1.) ;
#229=VECTOR('Line Direction',#228,1.) ;
#234=VECTOR('Line Direction',#233,1.) ;
#251=VECTOR('Line Direction',#250,1.) ;
#258=VECTOR('Line Direction',#257,1.) ;
#265=VECTOR('Line Direction',#264,1.) ;
#316=VECTOR('Line Direction',#315,1.) ;
#332=VECTOR('Line Direction',#331,1.) ;
#350=VECTOR('Line Direction',#349,1.) ;
#366=VECTOR('Line Direction',#365,1.) ;
#411=VECTOR('Line Direction',#410,1.) ;
#425=VECTOR('Line Direction',#424,1.) ;
#445=VECTOR('Line Direction',#444,1.) ;
#459=VECTOR('Line Direction',#458,1.) ;
#476=VECTOR('Line Direction',#475,1.) ;
#481=VECTOR('Line Direction',#480,1.) ;
#493=VECTOR('Line Direction',#492,1.) ;
#505=VECTOR('Line Direction',#504,1.) ;
#534=VECTOR('Line Direction',#533,1.) ;
#539=VECTOR('Line Direction',#538,1.) ;
#551=VECTOR('Line Direction',#550,1.) ;
#563=VECTOR('Line Direction',#562,1.) ;
#15=UNCERTAINTY_MEASURE_WITH_UNIT(LENGTH_MEASURE(0.005),#12,'distance_accuracy_value','CONFUSED CURVE UNCERTAINTY') ;
#586=SHAPE_REPRESENTATION_RELATIONSHIP(' ',' ',#19,#585) ;
#83=ORIENTED_EDGE('',*,*,#62,.F.) ;
#84=ORIENTED_EDGE('',*,*,#69,.T.) ;
#85=ORIENTED_EDGE('',*,*,#76,.T.) ;
#86=ORIENTED_EDGE('',*,*,#81,.F.) ;
#114=ORIENTED_EDGE('',*,*,#76,.F.) ;
#115=ORIENTED_EDGE('',*,*,#100,.T.) ;
#116=ORIENTED_EDGE('',*,*,#107,.T.) ;
#117=ORIENTED_EDGE('',*,*,#112,.F.) ;
#145=ORIENTED_EDGE('',*,*,#107,.F.) ;
#146=ORIENTED_EDGE('',*,*,#131,.T.) ;
#147=ORIENTED_EDGE('',*,*,#138,.T.) ;
#148=ORIENTED_EDGE('',*,*,#143,.F.) ;
#167=ORIENTED_EDGE('',*,*,#138,.F.) ;
#168=ORIENTED_EDGE('',*,*,#160,.T.) ;
#169=ORIENTED_EDGE('',*,*,#62,.T.) ;
#170=ORIENTED_EDGE('',*,*,#165,.F.) ;
#207=ORIENTED_EDGE('',*,*,#186,.F.) ;
#208=ORIENTED_EDGE('',*,*,#193,.T.) ;
#209=ORIENTED_EDGE('',*,*,#200,.T.) ;
#210=ORIENTED_EDGE('',*,*,#205,.F.) ;
#238=ORIENTED_EDGE('',*,*,#226,.F.) ;
#239=ORIENTED_EDGE('',*,*,#231,.T.) ;
#240=ORIENTED_EDGE('',*,*,#186,.T.) ;
#241=ORIENTED_EDGE('',*,*,#236,.F.) ;
#269=ORIENTED_EDGE('',*,*,#200,.F.) ;
#270=ORIENTED_EDGE('',*,*,#255,.T.) ;
#271=ORIENTED_EDGE('',*,*,#262,.T.) ;
#272=ORIENTED_EDGE('',*,*,#267,.F.) ;
#291=ORIENTED_EDGE('',*,*,#262,.F.) ;
#292=ORIENTED_EDGE('',*,*,#284,.T.) ;
#293=ORIENTED_EDGE('',*,*,#226,.T.) ;
#294=ORIENTED_EDGE('',*,*,#289,.F.) ;
#303=ORIENTED_EDGE('',*,*,#160,.F.) ;
#304=ORIENTED_EDGE('',*,*,#131,.F.) ;
#305=ORIENTED_EDGE('',*,*,#100,.F.) ;
#306=ORIENTED_EDGE('',*,*,#69,.F.) ;
#309=ORIENTED_EDGE('',*,*,#236,.T.) ;
#310=ORIENTED_EDGE('',*,*,#205,.T.) ;
#311=ORIENTED_EDGE('',*,*,#267,.T.) ;
#312=ORIENTED_EDGE('',*,*,#289,.T.) ;
#343=ORIENTED_EDGE('',*,*,#322,.T.) ;
#344=ORIENTED_EDGE('',*,*,#329,.T.) ;
#345=ORIENTED_EDGE('',*,*,#336,.T.) ;
#346=ORIENTED_EDGE('',*,*,#341,.T.) ;
#377=ORIENTED_EDGE('',*,*,#356,.T.) ;
#378=ORIENTED_EDGE('',*,*,#363,.T.) ;
#379=ORIENTED_EDGE('',*,*,#370,.T.) ;
#380=ORIENTED_EDGE('',*,*,#375,.T.) ;
#389=ORIENTED_EDGE('',*,*,#81,.T.) ;
#390=ORIENTED_EDGE('',*,*,#112,.T.) ;
#391=ORIENTED_EDGE('',*,*,#143,.T.) ;
#392=ORIENTED_EDGE('',*,*,#165,.T.) ;
#395=ORIENTED_EDGE('',*,*,#284,.F.) ;
#396=ORIENTED_EDGE('',*,*,#255,.F.) ;
#397=ORIENTED_EDGE('',*,*,#193,.F.) ;
#398=ORIENTED_EDGE('',*,*,#231,.F.) ;
#429=ORIENTED_EDGE('',*,*,#408,.F.) ;
#430=ORIENTED_EDGE('',*,*,#415,.F.) ;
#431=ORIENTED_EDGE('',*,*,#422,.F.) ;
#432=ORIENTED_EDGE('',*,*,#427,.F.) ;
#463=ORIENTED_EDGE('',*,*,#442,.F.) ;
#464=ORIENTED_EDGE('',*,*,#449,.F.) ;
#465=ORIENTED_EDGE('',*,*,#456,.F.) ;
#466=ORIENTED_EDGE('',*,*,#461,.F.) ;
#485=ORIENTED_EDGE('',*,*,#478,.F.) ;
#486=ORIENTED_EDGE('',*,*,#456,.T.) ;
#487=ORIENTED_EDGE('',*,*,#483,.T.) ;
#488=ORIENTED_EDGE('',*,*,#363,.F.) ;
#497=ORIENTED_EDGE('',*,*,#495,.F.) ;
#498=ORIENTED_EDGE('',*,*,#461,.T.) ;
#499=ORIENTED_EDGE('',*,*,#478,.T.) ;
#500=ORIENTED_EDGE('',*,*,#356,.F.) ;
#509=ORIENTED_EDGE('',*,*,#483,.F.) ;
#510=ORIENTED_EDGE('',*,*,#449,.T.) ;
#511=ORIENTED_EDGE('',*,*,#507,.T.) ;
#512=ORIENTED_EDGE('',*,*,#370,.F.) ;
#521=ORIENTED_EDGE('',*,*,#507,.F.) ;
#522=ORIENTED_EDGE('',*,*,#442,.T.) ;
#523=ORIENTED_EDGE('',*,*,#495,.T.) ;
#524=ORIENTED_EDGE('',*,*,#375,.F.) ;
#543=ORIENTED_EDGE('',*,*,#536,.F.) ;
#544=ORIENTED_EDGE('',*,*,#422,.T.) ;
#545=ORIENTED_EDGE('',*,*,#541,.T.) ;
#546=ORIENTED_EDGE('',*,*,#329,.F.) ;
#555=ORIENTED_EDGE('',*,*,#553,.F.) ;
#556=ORIENTED_EDGE('',*,*,#427,.T.) ;
#557=ORIENTED_EDGE('',*,*,#536,.T.) ;
#558=ORIENTED_EDGE('',*,*,#322,.F.) ;
#567=ORIENTED_EDGE('',*,*,#541,.F.) ;
#568=ORIENTED_EDGE('',*,*,#415,.T.) ;
#569=ORIENTED_EDGE('',*,*,#565,.T.) ;
#570=ORIENTED_EDGE('',*,*,#336,.F.) ;
#579=ORIENTED_EDGE('',*,*,#565,.F.) ;
#580=ORIENTED_EDGE('',*,*,#408,.T.) ;
#581=ORIENTED_EDGE('',*,*,#553,.T.) ;
#582=ORIENTED_EDGE('',*,*,#341,.F.) ;
#313=FACE_BOUND('',#308,.T.) ;
#347=FACE_BOUND('',#342,.T.) ;
#381=FACE_BOUND('',#376,.T.) ;
#399=FACE_BOUND('',#394,.T.) ;
#433=FACE_BOUND('',#428,.T.) ;
#467=FACE_BOUND('',#462,.T.) ;
#48=CLOSED_SHELL('Closed Shell',(#88,#119,#150,#172,#212,#243,#274,#296,#382,#468,#490,#502,#514,#526,#548,#560,#572,#584)) ;
#585=ADVANCED_BREP_SHAPE_REPRESENTATION('NONE',(#38),#16) ;
#88=ADVANCED_FACE('K\X2\00F6\X0\rper.2',(#87),#53,.T.) ;
#119=ADVANCED_FACE('K\X2\00F6\X0\rper.2',(#118),#93,.T.) ;
#150=ADVANCED_FACE('K\X2\00F6\X0\rper.2',(#149),#124,.T.) ;
#172=ADVANCED_FACE('K\X2\00F6\X0\rper.2',(#171),#155,.T.) ;
#212=ADVANCED_FACE('K\X2\00F6\X0\rper.2',(#211),#177,.F.) ;
#243=ADVANCED_FACE('K\X2\00F6\X0\rper.2',(#242),#217,.F.) ;
#274=ADVANCED_FACE('K\X2\00F6\X0\rper.2',(#273),#248,.F.) ;
#296=ADVANCED_FACE('K\X2\00F6\X0\rper.2',(#295),#279,.F.) ;
#382=ADVANCED_FACE('K\X2\00F6\X0\rper.2',(#307,#313,#347,#381),#301,.F.) ;
#468=ADVANCED_FACE('K\X2\00F6\X0\rper.2',(#393,#399,#433,#467),#387,.T.) ;
#490=ADVANCED_FACE('K\X2\00F6\X0\rper.2',(#489),#473,.F.) ;
#502=ADVANCED_FACE('K\X2\00F6\X0\rper.2',(#501),#217,.F.) ;
#514=ADVANCED_FACE('K\X2\00F6\X0\rper.2',(#513),#248,.F.) ;
#526=ADVANCED_FACE('K\X2\00F6\X0\rper.2',(#525),#519,.F.) ;
#548=ADVANCED_FACE('K\X2\00F6\X0\rper.2',(#547),#531,.F.) ;
#560=ADVANCED_FACE('K\X2\00F6\X0\rper.2',(#559),#217,.F.) ;
#572=ADVANCED_FACE('K\X2\00F6\X0\rper.2',(#571),#248,.F.) ;
#584=ADVANCED_FACE('K\X2\00F6\X0\rper.2',(#583),#577,.F.) ;
#4=APPLICATION_PROTOCOL_DEFINITION('international standard','automotive_design',2001,#1) ;
#38=MANIFOLD_SOLID_BREP('K\X2\00F6\X0\rper.2',#48) ;
#190=CIRCLE('generated circle',#189,1.775) ;
#204=CIRCLE('generated circle',#203,1.775) ;
#283=CIRCLE('generated circle',#282,1.775) ;
#288=CIRCLE('generated circle',#287,1.775) ;
#326=CIRCLE('generated circle',#325,1.775) ;
#340=CIRCLE('generated circle',#339,1.775) ;
#360=CIRCLE('generated circle',#359,1.775) ;
#374=CIRCLE('generated circle',#373,1.775) ;
#403=CIRCLE('generated circle',#402,1.775) ;
#419=CIRCLE('generated circle',#418,1.775) ;
#437=CIRCLE('generated circle',#436,1.775) ;
#453=CIRCLE('generated circle',#452,1.775) ;
#39=COLOUR_RGB('Colour',0.823529411765,0.823529411765,1.) ;
#26=CONSTRUCTIVE_GEOMETRY_REPRESENTATION('supplemental geometry',(#25,#32,#37),#16) ;
#27=CONSTRUCTIVE_GEOMETRY_REPRESENTATION_RELATIONSHIP('supplemental geometry','',#19,#26) ;
#177=CYLINDRICAL_SURFACE('generated cylinder',#176,1.775) ;
#279=CYLINDRICAL_SURFACE('generated cylinder',#278,1.775) ;
#473=CYLINDRICAL_SURFACE('generated cylinder',#472,1.775) ;
#519=CYLINDRICAL_SURFACE('generated cylinder',#518,1.775) ;
#531=CYLINDRICAL_SURFACE('generated cylinder',#530,1.775) ;
#577=CYLINDRICAL_SURFACE('generated cylinder',#576,1.775) ;
#62=EDGE_CURVE('',#59,#61,#57,.T.) ;
#69=EDGE_CURVE('',#59,#68,#66,.T.) ;
#76=EDGE_CURVE('',#68,#75,#73,.T.) ;
#81=EDGE_CURVE('',#61,#75,#80,.T.) ;
#100=EDGE_CURVE('',#68,#99,#97,.T.) ;
#107=EDGE_CURVE('',#99,#106,#104,.T.) ;
#112=EDGE_CURVE('',#75,#106,#111,.T.) ;
#131=EDGE_CURVE('',#99,#130,#128,.T.) ;
#138=EDGE_CURVE('',#130,#137,#135,.T.) ;
#143=EDGE_CURVE('',#106,#137,#142,.T.) ;
#160=EDGE_CURVE('',#130,#59,#159,.T.) ;
#165=EDGE_CURVE('',#137,#61,#164,.T.) ;
#186=EDGE_CURVE('',#183,#185,#181,.F.) ;
#193=EDGE_CURVE('',#183,#192,#190,.T.) ;
#200=EDGE_CURVE('',#192,#199,#197,.F.) ;
#205=EDGE_CURVE('',#185,#199,#204,.T.) ;
#226=EDGE_CURVE('',#223,#225,#221,.T.) ;
#231=EDGE_CURVE('',#223,#183,#230,.F.) ;
#236=EDGE_CURVE('',#225,#185,#235,.F.) ;
#255=EDGE_CURVE('',#192,#254,#252,.F.) ;
#262=EDGE_CURVE('',#254,#261,#259,.T.) ;
#267=EDGE_CURVE('',#199,#261,#266,.F.) ;
#284=EDGE_CURVE('',#254,#223,#283,.T.) ;
#289=EDGE_CURVE('',#261,#225,#288,.T.) ;
#322=EDGE_CURVE('',#319,#321,#317,.F.) ;
#329=EDGE_CURVE('',#321,#328,#326,.T.) ;
#336=EDGE_CURVE('',#328,#335,#333,.F.) ;
#341=EDGE_CURVE('',#335,#319,#340,.T.) ;
#356=EDGE_CURVE('',#353,#355,#351,.F.) ;
#363=EDGE_CURVE('',#355,#362,#360,.T.) ;
#370=EDGE_CURVE('',#362,#369,#367,.F.) ;
#375=EDGE_CURVE('',#369,#353,#374,.T.) ;
#408=EDGE_CURVE('',#405,#407,#403,.T.) ;
#415=EDGE_CURVE('',#414,#405,#412,.F.) ;
#422=EDGE_CURVE('',#421,#414,#419,.T.) ;
#427=EDGE_CURVE('',#407,#421,#426,.F.) ;
#442=EDGE_CURVE('',#439,#441,#437,.T.) ;
#449=EDGE_CURVE('',#448,#439,#446,.F.) ;
#456=EDGE_CURVE('',#455,#448,#453,.T.) ;
#461=EDGE_CURVE('',#441,#455,#460,.F.) ;
#478=EDGE_CURVE('',#455,#355,#477,.F.) ;
#483=EDGE_CURVE('',#448,#362,#482,.F.) ;
#495=EDGE_CURVE('',#441,#353,#494,.T.) ;
#507=EDGE_CURVE('',#439,#369,#506,.T.) ;
#536=EDGE_CURVE('',#421,#321,#535,.F.) ;
#541=EDGE_CURVE('',#414,#328,#540,.F.) ;
#553=EDGE_CURVE('',#407,#319,#552,.T.) ;
#565=EDGE_CURVE('',#405,#335,#564,.T.) ;
#82=EDGE_LOOP('',(#83,#84,#85,#86)) ;
#113=EDGE_LOOP('',(#114,#115,#116,#117)) ;
#144=EDGE_LOOP('',(#145,#146,#147,#148)) ;
#166=EDGE_LOOP('',(#167,#168,#169,#170)) ;
#206=EDGE_LOOP('',(#207,#208,#209,#210)) ;
#237=EDGE_LOOP('',(#238,#239,#240,#241)) ;
#268=EDGE_LOOP('',(#269,#270,#271,#272)) ;
#290=EDGE_LOOP('',(#291,#292,#293,#294)) ;
#302=EDGE_LOOP('',(#303,#304,#305,#306)) ;
#308=EDGE_LOOP('',(#309,#310,#311,#312)) ;
#342=EDGE_LOOP('',(#343,#344,#345,#346)) ;
#376=EDGE_LOOP('',(#377,#378,#379,#380)) ;
#388=EDGE_LOOP('',(#389,#390,#391,#392)) ;
#394=EDGE_LOOP('',(#395,#396,#397,#398)) ;
#428=EDGE_LOOP('',(#429,#430,#431,#432)) ;
#462=EDGE_LOOP('',(#463,#464,#465,#466)) ;
#484=EDGE_LOOP('',(#485,#486,#487,#488)) ;
#496=EDGE_LOOP('',(#497,#498,#499,#500)) ;
#508=EDGE_LOOP('',(#509,#510,#511,#512)) ;
#520=EDGE_LOOP('',(#521,#522,#523,#524)) ;
#542=EDGE_LOOP('',(#543,#544,#545,#546)) ;
#554=EDGE_LOOP('',(#555,#556,#557,#558)) ;
#566=EDGE_LOOP('',(#567,#568,#569,#570)) ;
#578=EDGE_LOOP('',(#579,#580,#581,#582)) ;
#87=FACE_OUTER_BOUND('',#82,.T.) ;
#118=FACE_OUTER_BOUND('',#113,.T.) ;
#149=FACE_OUTER_BOUND('',#144,.T.) ;
#171=FACE_OUTER_BOUND('',#166,.T.) ;
#211=FACE_OUTER_BOUND('',#206,.T.) ;
#242=FACE_OUTER_BOUND('',#237,.T.) ;
#273=FACE_OUTER_BOUND('',#268,.T.) ;
#295=FACE_OUTER_BOUND('',#290,.T.) ;
#307=FACE_OUTER_BOUND('',#302,.T.) ;
#393=FACE_OUTER_BOUND('',#388,.T.) ;
#489=FACE_OUTER_BOUND('',#484,.T.) ;
#501=FACE_OUTER_BOUND('',#496,.T.) ;
#513=FACE_OUTER_BOUND('',#508,.T.) ;
#525=FACE_OUTER_BOUND('',#520,.T.) ;
#547=FACE_OUTER_BOUND('',#542,.T.) ;
#559=FACE_OUTER_BOUND('',#554,.T.) ;
#571=FACE_OUTER_BOUND('',#566,.T.) ;
#583=FACE_OUTER_BOUND('',#578,.T.) ;
#57=LINE('Line',#54,#56) ;
#66=LINE('Line',#63,#65) ;
#73=LINE('Line',#70,#72) ;
#80=LINE('Line',#77,#79) ;
#97=LINE('Line',#94,#96) ;
#104=LINE('Line',#101,#103) ;
#111=LINE('Line',#108,#110) ;
#128=LINE('Line',#125,#127) ;
#135=LINE('Line',#132,#134) ;
#142=LINE('Line',#139,#141) ;
#159=LINE('Line',#156,#158) ;
#164=LINE('Line',#161,#163) ;
#181=LINE('Line',#178,#180) ;
#197=LINE('Line',#194,#196) ;
#221=LINE('Line',#218,#220) ;
#230=LINE('Line',#227,#229) ;
#235=LINE('Line',#232,#234) ;
#252=LINE('Line',#249,#251) ;
#259=LINE('Line',#256,#258) ;
#266=LINE('Line',#263,#265) ;
#317=LINE('Line',#314,#316) ;
#333=LINE('Line',#330,#332) ;
#351=LINE('Line',#348,#350) ;
#367=LINE('Line',#364,#366) ;
#412=LINE('Line',#409,#411) ;
#426=LINE('Line',#423,#425) ;
#446=LINE('Line',#443,#445) ;
#460=LINE('Line',#457,#459) ;
#477=LINE('Line',#474,#476) ;
#482=LINE('Line',#479,#481) ;
#494=LINE('Line',#491,#493) ;
#506=LINE('Line',#503,#505) ;
#535=LINE('Line',#532,#534) ;
#540=LINE('Line',#537,#539) ;
#552=LINE('Line',#549,#551) ;
#564=LINE('Line',#561,#563) ;
#25=PLANE('Referenz_xy',#24) ;
#32=PLANE('Referenz_yz',#31) ;
#37=PLANE('Referenz_zx',#36) ;
#53=PLANE('',#52) ;
#93=PLANE('',#92) ;
#124=PLANE('',#123) ;
#155=PLANE('',#154) ;
#217=PLANE('',#216) ;
#248=PLANE('',#247) ;
#301=PLANE('',#300) ;
#387=PLANE('',#386) ;
#9=PRODUCT_CATEGORY_RELATIONSHIP(' ',' ',#7,#8) ;
#6=PRODUCT_DEFINITION_FORMATION_WITH_SPECIFIED_SOURCE('',' ',#5,.NOT_KNOWN.) ;
#20=SHAPE_DEFINITION_REPRESENTATION(#11,#19) ;
#59=VERTEX_POINT('',#58) ;
#61=VERTEX_POINT('',#60) ;
#68=VERTEX_POINT('',#67) ;
#75=VERTEX_POINT('',#74) ;
#99=VERTEX_POINT('',#98) ;
#106=VERTEX_POINT('',#105) ;
#130=VERTEX_POINT('',#129) ;
#137=VERTEX_POINT('',#136) ;
#183=VERTEX_POINT('',#182) ;
#185=VERTEX_POINT('',#184) ;
#192=VERTEX_POINT('',#191) ;
#199=VERTEX_POINT('',#198) ;
#223=VERTEX_POINT('',#222) ;
#225=VERTEX_POINT('',#224) ;
#254=VERTEX_POINT('',#253) ;
#261=VERTEX_POINT('',#260) ;
#319=VERTEX_POINT('',#318) ;
#321=VERTEX_POINT('',#320) ;
#328=VERTEX_POINT('',#327) ;
#335=VERTEX_POINT('',#334) ;
#353=VERTEX_POINT('',#352) ;
#355=VERTEX_POINT('',#354) ;
#362=VERTEX_POINT('',#361) ;
#369=VERTEX_POINT('',#368) ;
#405=VERTEX_POINT('',#404) ;
#407=VERTEX_POINT('',#406) ;
#414=VERTEX_POINT('',#413) ;
#421=VERTEX_POINT('',#420) ;
#439=VERTEX_POINT('',#438) ;
#441=VERTEX_POINT('',#440) ;
#448=VERTEX_POINT('',#447) ;
#455=VERTEX_POINT('',#454) ;
#12=(LENGTH_UNIT()NAMED_UNIT(*)SI_UNIT(.MILLI.,.METRE.)) ;
#13=(NAMED_UNIT(*)PLANE_ANGLE_UNIT()SI_UNIT($,.RADIAN.)) ;
#14=(NAMED_UNIT(*)SI_UNIT($,.STERADIAN.)SOLID_ANGLE_UNIT()) ;
#16=(GEOMETRIC_REPRESENTATION_CONTEXT(3)GLOBAL_UNCERTAINTY_ASSIGNED_CONTEXT((#15))GLOBAL_UNIT_ASSIGNED_CONTEXT((#12,#13,#14))REPRESENTATION_CONTEXT(' ',' ')) ;
ENDSEC;
END-ISO-10303-21;
