ISO-10303-21;
HEADER;
FILE_DESCRIPTION(('CATIA V5R24 STEP','CAx-IF Rec.Pracs.--- Model Styling and Organization---1.2---2011-12-15'),'2;1');

FILE_NAME ('001770-2_1', '2018-10-04T13:49:17+00:00', ('Weidmueller Interface'), ('Weidmueller'), 'CATIA Version 5-6 Release 2014 SP4 HF52', 'CATIA V5 STEP AP214', 'none');

FILE_SCHEMA(('AUTOMOTIVE_DESIGN { 1 0 10303 214 1 1 1 1 }'));

ENDSEC;
DATA;
#5=PRODUCT('0318560000','','',(#2)) ;
#2=PRODUCT_CONTEXT(' ',#1,'mechanical') ;
#1=APPLICATION_CONTEXT('automotive design') ;
#10=PRODUCT_DEFINITION('',' ',#6,#3) ;
#3=PRODUCT_DEFINITION_CONTEXT('part definition',#1,' ') ;
#11=PRODUCT_DEFINITION_SHAPE(' ',' ',#10) ;
#525=MECHANICAL_DESIGN_GEOMETRIC_PRESENTATION_REPRESENTATION(' ',(#46),#16) ;
#19=SHAPE_REPRESENTATION(' ',(#18),#16) ;
#18=AXIS2_PLACEMENT_3D(' ',#17,$,$) ;
#24=AXIS2_PLACEMENT_3D('Plane Axis2P3D',#21,#22,#23) ;
#31=AXIS2_PLACEMENT_3D('Plane Axis2P3D',#28,#29,#30) ;
#36=AXIS2_PLACEMENT_3D('Plane Axis2P3D',#33,#34,#35) ;
#52=AXIS2_PLACEMENT_3D('Cylinder Axis2P3D',#49,#50,#51) ;
#65=AXIS2_PLACEMENT_3D('Circle Axis2P3D',#63,#64,$) ;
#79=AXIS2_PLACEMENT_3D('Circle Axis2P3D',#77,#78,$) ;
#91=AXIS2_PLACEMENT_3D('Circle Axis2P3D',#89,#90,$) ;
#96=AXIS2_PLACEMENT_3D('Circle Axis2P3D',#94,#95,$) ;
#109=AXIS2_PLACEMENT_3D('Plane Axis2P3D',#106,#107,#108) ;
#149=AXIS2_PLACEMENT_3D('Plane Axis2P3D',#146,#147,#148) ;
#180=AXIS2_PLACEMENT_3D('Plane Axis2P3D',#177,#178,#179) ;
#211=AXIS2_PLACEMENT_3D('Plane Axis2P3D',#208,#209,#210) ;
#242=AXIS2_PLACEMENT_3D('Plane Axis2P3D',#239,#240,#241) ;
#273=AXIS2_PLACEMENT_3D('Plane Axis2P3D',#270,#271,#272) ;
#295=AXIS2_PLACEMENT_3D('Plane Axis2P3D',#292,#293,#294) ;
#311=AXIS2_PLACEMENT_3D('Circle Axis2P3D',#309,#310,$) ;
#320=AXIS2_PLACEMENT_3D('Circle Axis2P3D',#318,#319,$) ;
#329=AXIS2_PLACEMENT_3D('Circle Axis2P3D',#327,#328,$) ;
#338=AXIS2_PLACEMENT_3D('Circle Axis2P3D',#336,#337,$) ;
#347=AXIS2_PLACEMENT_3D('Circle Axis2P3D',#345,#346,$) ;
#356=AXIS2_PLACEMENT_3D('Circle Axis2P3D',#354,#355,$) ;
#367=AXIS2_PLACEMENT_3D('Plane Axis2P3D',#364,#365,#366) ;
#383=AXIS2_PLACEMENT_3D('Circle Axis2P3D',#381,#382,$) ;
#392=AXIS2_PLACEMENT_3D('Circle Axis2P3D',#390,#391,$) ;
#401=AXIS2_PLACEMENT_3D('Circle Axis2P3D',#399,#400,$) ;
#410=AXIS2_PLACEMENT_3D('Circle Axis2P3D',#408,#409,$) ;
#419=AXIS2_PLACEMENT_3D('Circle Axis2P3D',#417,#418,$) ;
#428=AXIS2_PLACEMENT_3D('Circle Axis2P3D',#426,#427,$) ;
#439=AXIS2_PLACEMENT_3D('Cylinder Axis2P3D',#436,#437,#438) ;
#468=AXIS2_PLACEMENT_3D('Cylinder Axis2P3D',#465,#466,#467) ;
#497=AXIS2_PLACEMENT_3D('Cylinder Axis2P3D',#494,#495,#496) ;
#17=CARTESIAN_POINT(' ',(0.,0.,0.)) ;
#21=CARTESIAN_POINT('Axis2P3D Location',(0.,0.,0.)) ;
#28=CARTESIAN_POINT('Axis2P3D Location',(0.,0.,0.)) ;
#33=CARTESIAN_POINT('Axis2P3D Location',(0.,0.,0.)) ;
#49=CARTESIAN_POINT('Axis2P3D Location',(1.44999999971,8.9,1.6)) ;
#54=CARTESIAN_POINT('Line Origine',(0.774999999706,8.27472242465,1.94159069626)) ;
#58=CARTESIAN_POINT('Vertex',(-2.94494650888E-010,8.27472242465,1.94159069626)) ;
#60=CARTESIAN_POINT('Vertex',(1.54999999971,8.27472242465,1.94159069626)) ;
#63=CARTESIAN_POINT('Axis2P3D Location',(-2.94494650888E-010,8.9,1.6)) ;
#67=CARTESIAN_POINT('Vertex',(-2.94494650888E-010,9.52527757535,1.25840930374)) ;
#70=CARTESIAN_POINT('Line Origine',(0.774999999706,9.52527757535,1.25840930374)) ;
#74=CARTESIAN_POINT('Vertex',(1.54999999971,9.52527757535,1.25840930374)) ;
#77=CARTESIAN_POINT('Axis2P3D Location',(1.54999999971,8.9,1.6)) ;
#89=CARTESIAN_POINT('Axis2P3D Location',(-2.94494650888E-010,8.9,1.6)) ;
#94=CARTESIAN_POINT('Axis2P3D Location',(1.54999999971,8.9,1.6)) ;
#106=CARTESIAN_POINT('Axis2P3D Location',(-2.94494626114E-010,32.5,0.)) ;
#111=CARTESIAN_POINT('Line Origine',(0.774999999706,0.,0.)) ;
#115=CARTESIAN_POINT('Vertex',(-2.94494630289E-010,3.5527136788E-015,-5.55111512313E-016)) ;
#117=CARTESIAN_POINT('Vertex',(1.54999999971,3.5527136788E-015,-5.55111512313E-016)) ;
#120=CARTESIAN_POINT('Line Origine',(-2.94494626114E-010,16.25,0.)) ;
#124=CARTESIAN_POINT('Vertex',(-2.94494630289E-010,32.5,-5.55111512313E-016)) ;
#127=CARTESIAN_POINT('Line Origine',(0.774999999706,32.5,0.)) ;
#131=CARTESIAN_POINT('Vertex',(1.54999999971,32.5,-5.55111512313E-016)) ;
#134=CARTESIAN_POINT('Line Origine',(1.54999999971,16.25,0.)) ;
#146=CARTESIAN_POINT('Axis2P3D Location',(-2.94494626114E-010,32.5,-3.5527136788E-015)) ;
#151=CARTESIAN_POINT('Line Origine',(-2.94494626114E-010,32.5,11.25)) ;
#155=CARTESIAN_POINT('Vertex',(-2.94494630289E-010,32.5,22.5)) ;
#158=CARTESIAN_POINT('Line Origine',(0.774999999706,32.5,22.5)) ;
#162=CARTESIAN_POINT('Vertex',(1.54999999971,32.5,22.5)) ;
#165=CARTESIAN_POINT('Line Origine',(1.54999999971,32.5,11.25)) ;
#177=CARTESIAN_POINT('Axis2P3D Location',(-2.94494626114E-010,32.5,22.5)) ;
#182=CARTESIAN_POINT('Line Origine',(-2.94494626114E-010,29.75,25.25)) ;
#186=CARTESIAN_POINT('Vertex',(-2.94494630289E-010,27.,28.)) ;
#189=CARTESIAN_POINT('Line Origine',(0.774999999706,27.,28.)) ;
#193=CARTESIAN_POINT('Vertex',(1.54999999971,27.,28.)) ;
#196=CARTESIAN_POINT('Line Origine',(1.54999999971,29.75,25.25)) ;
#208=CARTESIAN_POINT('Axis2P3D Location',(-2.94494638175E-010,5.5,28.)) ;
#213=CARTESIAN_POINT('Line Origine',(-2.94494638175E-010,16.25,28.)) ;
#217=CARTESIAN_POINT('Vertex',(-2.94494630289E-010,5.5,28.)) ;
#220=CARTESIAN_POINT('Line Origine',(0.774999999706,5.5,28.)) ;
#224=CARTESIAN_POINT('Vertex',(1.54999999971,5.5,28.)) ;
#227=CARTESIAN_POINT('Line Origine',(1.54999999971,16.25,28.)) ;
#239=CARTESIAN_POINT('Axis2P3D Location',(-2.94494634464E-010,-4.54600194906E-017,22.5)) ;
#244=CARTESIAN_POINT('Line Origine',(-2.94494634464E-010,2.75,25.25)) ;
#248=CARTESIAN_POINT('Vertex',(-2.94494630289E-010,-3.5527136788E-015,22.5)) ;
#251=CARTESIAN_POINT('Line Origine',(0.774999999706,-4.54600194906E-017,22.5)) ;
#255=CARTESIAN_POINT('Vertex',(1.54999999971,-3.5527136788E-015,22.5)) ;
#258=CARTESIAN_POINT('Line Origine',(1.54999999971,2.75,25.25)) ;
#270=CARTESIAN_POINT('Axis2P3D Location',(-2.94494634464E-010,0.,0.)) ;
#275=CARTESIAN_POINT('Line Origine',(-2.94494634464E-010,0.,11.25)) ;
#280=CARTESIAN_POINT('Line Origine',(1.54999999971,0.,11.25)) ;
#292=CARTESIAN_POINT('Axis2P3D Location',(-2.94494630289E-010,16.25,-1.7763568394E-015)) ;
#309=CARTESIAN_POINT('Axis2P3D Location',(-2.94494630289E-010,8.75,18.6)) ;
#313=CARTESIAN_POINT('Vertex',(-2.94494630289E-010,8.12472242465,18.9415906963)) ;
#315=CARTESIAN_POINT('Vertex',(-2.94494650888E-010,9.37527757535,18.2584093037)) ;
#318=CARTESIAN_POINT('Axis2P3D Location',(-2.94494630289E-010,8.75,18.6)) ;
#327=CARTESIAN_POINT('Axis2P3D Location',(-2.94494630289E-010,26.1,14.2)) ;
#331=CARTESIAN_POINT('Vertex',(-2.94494630289E-010,25.4747224247,14.5415906963)) ;
#333=CARTESIAN_POINT('Vertex',(-2.94494428843E-010,26.7252775753,13.8584093037)) ;
#336=CARTESIAN_POINT('Axis2P3D Location',(-2.94494630289E-010,26.1,14.2)) ;
#345=CARTESIAN_POINT('Axis2P3D Location',(-2.94494630289E-010,6.5,14.2)) ;
#349=CARTESIAN_POINT('Vertex',(-2.94494630289E-010,5.87472242465,14.5415906963)) ;
#351=CARTESIAN_POINT('Vertex',(-2.94494650888E-010,7.12527757535,13.8584093037)) ;
#354=CARTESIAN_POINT('Axis2P3D Location',(-2.94494630289E-010,6.5,14.2)) ;
#364=CARTESIAN_POINT('Axis2P3D Location',(1.54999999971,16.25,-1.7763568394E-015)) ;
#381=CARTESIAN_POINT('Axis2P3D Location',(1.54999999971,8.75,18.6)) ;
#385=CARTESIAN_POINT('Vertex',(1.54999999971,9.37527757535,18.2584093037)) ;
#387=CARTESIAN_POINT('Vertex',(1.54999999971,8.12472242465,18.9415906963)) ;
#390=CARTESIAN_POINT('Axis2P3D Location',(1.54999999971,8.75,18.6)) ;
#399=CARTESIAN_POINT('Axis2P3D Location',(1.54999999971,26.1,14.2)) ;
#403=CARTESIAN_POINT('Vertex',(1.54999999971,26.7252775753,13.8584093037)) ;
#405=CARTESIAN_POINT('Vertex',(1.54999999971,25.4747224247,14.5415906963)) ;
#408=CARTESIAN_POINT('Axis2P3D Location',(1.54999999971,26.1,14.2)) ;
#417=CARTESIAN_POINT('Axis2P3D Location',(1.54999999971,6.5,14.2)) ;
#421=CARTESIAN_POINT('Vertex',(1.54999999971,7.12527757535,13.8584093037)) ;
#423=CARTESIAN_POINT('Vertex',(1.54999999971,5.87472242465,14.5415906963)) ;
#426=CARTESIAN_POINT('Axis2P3D Location',(1.54999999971,6.5,14.2)) ;
#436=CARTESIAN_POINT('Axis2P3D Location',(1.44999999971,6.5,14.2)) ;
#441=CARTESIAN_POINT('Line Origine',(0.774999999706,5.87472242465,14.5415906963)) ;
#446=CARTESIAN_POINT('Line Origine',(0.774999999706,7.12527757535,13.8584093037)) ;
#465=CARTESIAN_POINT('Axis2P3D Location',(1.44999999971,26.1,14.2)) ;
#470=CARTESIAN_POINT('Line Origine',(0.774999999706,25.4747224247,14.5415906963)) ;
#475=CARTESIAN_POINT('Line Origine',(0.774999999706,26.7252775753,13.8584093037)) ;
#494=CARTESIAN_POINT('Axis2P3D Location',(1.44999999971,8.75,18.6)) ;
#499=CARTESIAN_POINT('Line Origine',(0.774999999706,8.12472242465,18.9415906963)) ;
#504=CARTESIAN_POINT('Line Origine',(0.774999999706,9.37527757535,18.2584093037)) ;
#22=DIRECTION('Axis2P3D Direction',(0.,0.,1.)) ;
#23=DIRECTION('Axis2P3D XDirection',(1.,0.,0.)) ;
#29=DIRECTION('Axis2P3D Direction',(1.,0.,0.)) ;
#30=DIRECTION('Axis2P3D XDirection',(0.,1.,0.)) ;
#34=DIRECTION('Axis2P3D Direction',(0.,1.,0.)) ;
#35=DIRECTION('Axis2P3D XDirection',(0.,0.,1.)) ;
#50=DIRECTION('Axis2P3D Direction',(-1.,-3.74939945665E-033,-0.)) ;
#51=DIRECTION('Axis2P3D XDirection',(-3.29040758072E-033,0.87758256189,-0.479425538604)) ;
#55=DIRECTION('Vector Direction',(-1.,0.,0.)) ;
#64=DIRECTION('Axis2P3D Direction',(-1.,-3.74939945665E-033,-0.)) ;
#71=DIRECTION('Vector Direction',(-1.,0.,0.)) ;
#78=DIRECTION('Axis2P3D Direction',(-1.,-3.74939945665E-033,-0.)) ;
#90=DIRECTION('Axis2P3D Direction',(-1.,-3.74939945665E-033,-0.)) ;
#95=DIRECTION('Axis2P3D Direction',(-1.,-3.74939945665E-033,-0.)) ;
#107=DIRECTION('Axis2P3D Direction',(-0.,0.,1.)) ;
#108=DIRECTION('Axis2P3D XDirection',(3.74939945665E-033,-1.,0.)) ;
#112=DIRECTION('Vector Direction',(1.,0.,0.)) ;
#121=DIRECTION('Vector Direction',(0.,-1.,0.)) ;
#128=DIRECTION('Vector Direction',(1.,0.,0.)) ;
#135=DIRECTION('Vector Direction',(0.,-1.,0.)) ;
#147=DIRECTION('Axis2P3D Direction',(0.,1.,0.)) ;
#148=DIRECTION('Axis2P3D XDirection',(0.,0.,1.)) ;
#152=DIRECTION('Vector Direction',(0.,0.,1.)) ;
#159=DIRECTION('Vector Direction',(1.,0.,0.)) ;
#166=DIRECTION('Vector Direction',(0.,0.,1.)) ;
#178=DIRECTION('Axis2P3D Direction',(-0.,0.707106781187,0.707106781187)) ;
#179=DIRECTION('Axis2P3D XDirection',(0.,-0.707106781187,0.707106781187)) ;
#183=DIRECTION('Vector Direction',(0.,-0.707106781187,0.707106781187)) ;
#190=DIRECTION('Vector Direction',(1.,0.,0.)) ;
#197=DIRECTION('Vector Direction',(0.,-0.707106781187,0.707106781187)) ;
#209=DIRECTION('Axis2P3D Direction',(0.,0.,-1.)) ;
#210=DIRECTION('Axis2P3D XDirection',(-3.74939945665E-033,1.,0.)) ;
#214=DIRECTION('Vector Direction',(0.,1.,0.)) ;
#221=DIRECTION('Vector Direction',(1.,0.,0.)) ;
#228=DIRECTION('Vector Direction',(0.,1.,0.)) ;
#240=DIRECTION('Axis2P3D Direction',(0.,0.707106781187,-0.707106781187)) ;
#241=DIRECTION('Axis2P3D XDirection',(0.,0.707106781187,0.707106781187)) ;
#245=DIRECTION('Vector Direction',(0.,0.707106781187,0.707106781187)) ;
#252=DIRECTION('Vector Direction',(1.,0.,0.)) ;
#259=DIRECTION('Vector Direction',(0.,0.707106781187,0.707106781187)) ;
#271=DIRECTION('Axis2P3D Direction',(0.,1.,0.)) ;
#272=DIRECTION('Axis2P3D XDirection',(0.,0.,1.)) ;
#276=DIRECTION('Vector Direction',(0.,0.,1.)) ;
#281=DIRECTION('Vector Direction',(0.,0.,1.)) ;
#293=DIRECTION('Axis2P3D Direction',(1.,3.74939945665E-033,-0.)) ;
#294=DIRECTION('Axis2P3D XDirection',(-3.74939945665E-033,1.,0.)) ;
#310=DIRECTION('Axis2P3D Direction',(1.,3.74939945665E-033,-0.)) ;
#319=DIRECTION('Axis2P3D Direction',(1.,3.74939945665E-033,-0.)) ;
#328=DIRECTION('Axis2P3D Direction',(1.,3.74939945665E-033,-0.)) ;
#337=DIRECTION('Axis2P3D Direction',(1.,3.74939945665E-033,-0.)) ;
#346=DIRECTION('Axis2P3D Direction',(1.,3.74939945665E-033,-0.)) ;
#355=DIRECTION('Axis2P3D Direction',(1.,3.74939945665E-033,-0.)) ;
#365=DIRECTION('Axis2P3D Direction',(1.,3.74939945665E-033,-0.)) ;
#366=DIRECTION('Axis2P3D XDirection',(-3.74939945665E-033,1.,0.)) ;
#382=DIRECTION('Axis2P3D Direction',(1.,3.74939945665E-033,-0.)) ;
#391=DIRECTION('Axis2P3D Direction',(1.,3.74939945665E-033,-0.)) ;
#400=DIRECTION('Axis2P3D Direction',(1.,3.74939945665E-033,-0.)) ;
#409=DIRECTION('Axis2P3D Direction',(1.,3.74939945665E-033,-0.)) ;
#418=DIRECTION('Axis2P3D Direction',(1.,3.74939945665E-033,-0.)) ;
#427=DIRECTION('Axis2P3D Direction',(1.,3.74939945665E-033,-0.)) ;
#437=DIRECTION('Axis2P3D Direction',(-1.,-3.74939945665E-033,-0.)) ;
#438=DIRECTION('Axis2P3D XDirection',(-3.29040758072E-033,0.87758256189,-0.479425538604)) ;
#442=DIRECTION('Vector Direction',(-1.,0.,0.)) ;
#447=DIRECTION('Vector Direction',(-1.,0.,0.)) ;
#466=DIRECTION('Axis2P3D Direction',(-1.,-3.74939945665E-033,-0.)) ;
#467=DIRECTION('Axis2P3D XDirection',(-3.29040758072E-033,0.87758256189,-0.479425538604)) ;
#471=DIRECTION('Vector Direction',(-1.,0.,0.)) ;
#476=DIRECTION('Vector Direction',(-1.,0.,0.)) ;
#495=DIRECTION('Axis2P3D Direction',(-1.,-3.74939945665E-033,-0.)) ;
#496=DIRECTION('Axis2P3D XDirection',(-3.29040758072E-033,0.87758256189,-0.479425538604)) ;
#500=DIRECTION('Vector Direction',(-1.,0.,0.)) ;
#505=DIRECTION('Vector Direction',(-1.,0.,0.)) ;
#47=PRESENTATION_LAYER_ASSIGNMENT('1',' ',(#38)) ;
#8=PRODUCT_RELATED_PRODUCT_CATEGORY('part',$,(#5)) ;
#7=PRODUCT_CATEGORY('part','specification') ;
#46=STYLED_ITEM(' ',(#45),#38) ;
#45=PRESENTATION_STYLE_ASSIGNMENT((#44)) ;
#44=SURFACE_STYLE_USAGE(.BOTH.,#43) ;
#43=SURFACE_SIDE_STYLE(' ',(#42)) ;
#42=SURFACE_STYLE_FILL_AREA(#41) ;
#41=FILL_AREA_STYLE(' ',(#40)) ;
#40=FILL_AREA_STYLE_COLOUR(' ',#39) ;
#56=VECTOR('Line Direction',#55,1.) ;
#72=VECTOR('Line Direction',#71,1.) ;
#113=VECTOR('Line Direction',#112,1.) ;
#122=VECTOR('Line Direction',#121,1.) ;
#129=VECTOR('Line Direction',#128,1.) ;
#136=VECTOR('Line Direction',#135,1.) ;
#153=VECTOR('Line Direction',#152,1.) ;
#160=VECTOR('Line Direction',#159,1.) ;
#167=VECTOR('Line Direction',#166,1.) ;
#184=VECTOR('Line Direction',#183,1.) ;
#191=VECTOR('Line Direction',#190,1.) ;
#198=VECTOR('Line Direction',#197,1.) ;
#215=VECTOR('Line Direction',#214,1.) ;
#222=VECTOR('Line Direction',#221,1.) ;
#229=VECTOR('Line Direction',#228,1.) ;
#246=VECTOR('Line Direction',#245,1.) ;
#253=VECTOR('Line Direction',#252,1.) ;
#260=VECTOR('Line Direction',#259,1.) ;
#277=VECTOR('Line Direction',#276,1.) ;
#282=VECTOR('Line Direction',#281,1.) ;
#443=VECTOR('Line Direction',#442,1.) ;
#448=VECTOR('Line Direction',#447,1.) ;
#472=VECTOR('Line Direction',#471,1.) ;
#477=VECTOR('Line Direction',#476,1.) ;
#501=VECTOR('Line Direction',#500,1.) ;
#506=VECTOR('Line Direction',#505,1.) ;
#15=UNCERTAINTY_MEASURE_WITH_UNIT(LENGTH_MEASURE(0.005),#12,'distance_accuracy_value','CONFUSED CURVE UNCERTAINTY') ;
#524=SHAPE_REPRESENTATION_RELATIONSHIP(' ',' ',#19,#523) ;
#83=ORIENTED_EDGE('',*,*,#62,.F.) ;
#84=ORIENTED_EDGE('',*,*,#69,.F.) ;
#85=ORIENTED_EDGE('',*,*,#76,.T.) ;
#86=ORIENTED_EDGE('',*,*,#81,.T.) ;
#100=ORIENTED_EDGE('',*,*,#76,.F.) ;
#101=ORIENTED_EDGE('',*,*,#93,.F.) ;
#102=ORIENTED_EDGE('',*,*,#62,.T.) ;
#103=ORIENTED_EDGE('',*,*,#98,.T.) ;
#140=ORIENTED_EDGE('',*,*,#119,.F.) ;
#141=ORIENTED_EDGE('',*,*,#126,.T.) ;
#142=ORIENTED_EDGE('',*,*,#133,.T.) ;
#143=ORIENTED_EDGE('',*,*,#138,.F.) ;
#171=ORIENTED_EDGE('',*,*,#133,.F.) ;
#172=ORIENTED_EDGE('',*,*,#157,.T.) ;
#173=ORIENTED_EDGE('',*,*,#164,.T.) ;
#174=ORIENTED_EDGE('',*,*,#169,.F.) ;
#202=ORIENTED_EDGE('',*,*,#164,.F.) ;
#203=ORIENTED_EDGE('',*,*,#188,.T.) ;
#204=ORIENTED_EDGE('',*,*,#195,.T.) ;
#205=ORIENTED_EDGE('',*,*,#200,.F.) ;
#233=ORIENTED_EDGE('',*,*,#195,.F.) ;
#234=ORIENTED_EDGE('',*,*,#219,.T.) ;
#235=ORIENTED_EDGE('',*,*,#226,.T.) ;
#236=ORIENTED_EDGE('',*,*,#231,.F.) ;
#264=ORIENTED_EDGE('',*,*,#226,.F.) ;
#265=ORIENTED_EDGE('',*,*,#250,.T.) ;
#266=ORIENTED_EDGE('',*,*,#257,.T.) ;
#267=ORIENTED_EDGE('',*,*,#262,.F.) ;
#286=ORIENTED_EDGE('',*,*,#257,.F.) ;
#287=ORIENTED_EDGE('',*,*,#279,.T.) ;
#288=ORIENTED_EDGE('',*,*,#119,.T.) ;
#289=ORIENTED_EDGE('',*,*,#284,.F.) ;
#298=ORIENTED_EDGE('',*,*,#279,.F.) ;
#299=ORIENTED_EDGE('',*,*,#250,.F.) ;
#300=ORIENTED_EDGE('',*,*,#219,.F.) ;
#301=ORIENTED_EDGE('',*,*,#188,.F.) ;
#302=ORIENTED_EDGE('',*,*,#157,.F.) ;
#303=ORIENTED_EDGE('',*,*,#126,.F.) ;
#306=ORIENTED_EDGE('',*,*,#69,.T.) ;
#307=ORIENTED_EDGE('',*,*,#93,.T.) ;
#324=ORIENTED_EDGE('',*,*,#317,.T.) ;
#325=ORIENTED_EDGE('',*,*,#322,.T.) ;
#342=ORIENTED_EDGE('',*,*,#335,.T.) ;
#343=ORIENTED_EDGE('',*,*,#340,.T.) ;
#360=ORIENTED_EDGE('',*,*,#353,.T.) ;
#361=ORIENTED_EDGE('',*,*,#358,.T.) ;
#370=ORIENTED_EDGE('',*,*,#138,.T.) ;
#371=ORIENTED_EDGE('',*,*,#169,.T.) ;
#372=ORIENTED_EDGE('',*,*,#200,.T.) ;
#373=ORIENTED_EDGE('',*,*,#231,.T.) ;
#374=ORIENTED_EDGE('',*,*,#262,.T.) ;
#375=ORIENTED_EDGE('',*,*,#284,.T.) ;
#378=ORIENTED_EDGE('',*,*,#98,.F.) ;
#379=ORIENTED_EDGE('',*,*,#81,.F.) ;
#396=ORIENTED_EDGE('',*,*,#389,.F.) ;
#397=ORIENTED_EDGE('',*,*,#394,.F.) ;
#414=ORIENTED_EDGE('',*,*,#407,.F.) ;
#415=ORIENTED_EDGE('',*,*,#412,.F.) ;
#432=ORIENTED_EDGE('',*,*,#425,.F.) ;
#433=ORIENTED_EDGE('',*,*,#430,.F.) ;
#452=ORIENTED_EDGE('',*,*,#445,.F.) ;
#453=ORIENTED_EDGE('',*,*,#358,.F.) ;
#454=ORIENTED_EDGE('',*,*,#450,.T.) ;
#455=ORIENTED_EDGE('',*,*,#425,.T.) ;
#459=ORIENTED_EDGE('',*,*,#450,.F.) ;
#460=ORIENTED_EDGE('',*,*,#353,.F.) ;
#461=ORIENTED_EDGE('',*,*,#445,.T.) ;
#462=ORIENTED_EDGE('',*,*,#430,.T.) ;
#481=ORIENTED_EDGE('',*,*,#474,.F.) ;
#482=ORIENTED_EDGE('',*,*,#340,.F.) ;
#483=ORIENTED_EDGE('',*,*,#479,.T.) ;
#484=ORIENTED_EDGE('',*,*,#407,.T.) ;
#488=ORIENTED_EDGE('',*,*,#479,.F.) ;
#489=ORIENTED_EDGE('',*,*,#335,.F.) ;
#490=ORIENTED_EDGE('',*,*,#474,.T.) ;
#491=ORIENTED_EDGE('',*,*,#412,.T.) ;
#510=ORIENTED_EDGE('',*,*,#503,.F.) ;
#511=ORIENTED_EDGE('',*,*,#322,.F.) ;
#512=ORIENTED_EDGE('',*,*,#508,.T.) ;
#513=ORIENTED_EDGE('',*,*,#389,.T.) ;
#517=ORIENTED_EDGE('',*,*,#508,.F.) ;
#518=ORIENTED_EDGE('',*,*,#317,.F.) ;
#519=ORIENTED_EDGE('',*,*,#503,.T.) ;
#520=ORIENTED_EDGE('',*,*,#394,.T.) ;
#308=FACE_BOUND('',#305,.T.) ;
#326=FACE_BOUND('',#323,.T.) ;
#344=FACE_BOUND('',#341,.T.) ;
#362=FACE_BOUND('',#359,.T.) ;
#380=FACE_BOUND('',#377,.T.) ;
#398=FACE_BOUND('',#395,.T.) ;
#416=FACE_BOUND('',#413,.T.) ;
#434=FACE_BOUND('',#431,.T.) ;
#48=CLOSED_SHELL('Closed Shell',(#88,#105,#145,#176,#207,#238,#269,#291,#363,#435,#457,#464,#486,#493,#515,#522)) ;
#523=ADVANCED_BREP_SHAPE_REPRESENTATION('NONE',(#38),#16) ;
#88=ADVANCED_FACE('TW_AKZ2_5_',(#87),#53,.F.) ;
#105=ADVANCED_FACE('TW_AKZ2_5_',(#104),#53,.F.) ;
#145=ADVANCED_FACE('TW_AKZ2_5_',(#144),#110,.F.) ;
#176=ADVANCED_FACE('TW_AKZ2_5_',(#175),#150,.T.) ;
#207=ADVANCED_FACE('TW_AKZ2_5_',(#206),#181,.T.) ;
#238=ADVANCED_FACE('TW_AKZ2_5_',(#237),#212,.F.) ;
#269=ADVANCED_FACE('TW_AKZ2_5_',(#268),#243,.F.) ;
#291=ADVANCED_FACE('TW_AKZ2_5_',(#290),#274,.F.) ;
#363=ADVANCED_FACE('TW_AKZ2_5_',(#304,#308,#326,#344,#362),#296,.F.) ;
#435=ADVANCED_FACE('TW_AKZ2_5_',(#376,#380,#398,#416,#434),#368,.T.) ;
#457=ADVANCED_FACE('TW_AKZ2_5_',(#456),#440,.F.) ;
#464=ADVANCED_FACE('TW_AKZ2_5_',(#463),#440,.F.) ;
#486=ADVANCED_FACE('TW_AKZ2_5_',(#485),#469,.F.) ;
#493=ADVANCED_FACE('TW_AKZ2_5_',(#492),#469,.F.) ;
#515=ADVANCED_FACE('TW_AKZ2_5_',(#514),#498,.F.) ;
#522=ADVANCED_FACE('TW_AKZ2_5_',(#521),#498,.F.) ;
#4=APPLICATION_PROTOCOL_DEFINITION('international standard','automotive_design',2001,#1) ;
#38=MANIFOLD_SOLID_BREP('TW_AKZ2_5_',#48) ;
#66=CIRCLE('generated circle',#65,0.7125) ;
#80=CIRCLE('generated circle',#79,0.7125) ;
#92=CIRCLE('generated circle',#91,0.7125) ;
#97=CIRCLE('generated circle',#96,0.7125) ;
#312=CIRCLE('generated circle',#311,0.7125) ;
#321=CIRCLE('generated circle',#320,0.7125) ;
#330=CIRCLE('generated circle',#329,0.7125) ;
#339=CIRCLE('generated circle',#338,0.7125) ;
#348=CIRCLE('generated circle',#347,0.7125) ;
#357=CIRCLE('generated circle',#356,0.7125) ;
#384=CIRCLE('generated circle',#383,0.7125) ;
#393=CIRCLE('generated circle',#392,0.7125) ;
#402=CIRCLE('generated circle',#401,0.7125) ;
#411=CIRCLE('generated circle',#410,0.7125) ;
#420=CIRCLE('generated circle',#419,0.7125) ;
#429=CIRCLE('generated circle',#428,0.7125) ;
#39=COLOUR_RGB('Colour',0.83137254902,0.658823529412,0.572549019608) ;
#26=CONSTRUCTIVE_GEOMETRY_REPRESENTATION('supplemental geometry',(#25,#32,#37),#16) ;
#27=CONSTRUCTIVE_GEOMETRY_REPRESENTATION_RELATIONSHIP('supplemental geometry','',#19,#26) ;
#53=CYLINDRICAL_SURFACE('generated cylinder',#52,0.7125) ;
#440=CYLINDRICAL_SURFACE('generated cylinder',#439,0.7125) ;
#469=CYLINDRICAL_SURFACE('generated cylinder',#468,0.7125) ;
#498=CYLINDRICAL_SURFACE('generated cylinder',#497,0.7125) ;
#62=EDGE_CURVE('',#59,#61,#57,.F.) ;
#69=EDGE_CURVE('',#68,#59,#66,.F.) ;
#76=EDGE_CURVE('',#68,#75,#73,.F.) ;
#81=EDGE_CURVE('',#75,#61,#80,.F.) ;
#93=EDGE_CURVE('',#59,#68,#92,.F.) ;
#98=EDGE_CURVE('',#61,#75,#97,.F.) ;
#119=EDGE_CURVE('',#116,#118,#114,.T.) ;
#126=EDGE_CURVE('',#116,#125,#123,.F.) ;
#133=EDGE_CURVE('',#125,#132,#130,.T.) ;
#138=EDGE_CURVE('',#118,#132,#137,.F.) ;
#157=EDGE_CURVE('',#125,#156,#154,.T.) ;
#164=EDGE_CURVE('',#156,#163,#161,.T.) ;
#169=EDGE_CURVE('',#132,#163,#168,.T.) ;
#188=EDGE_CURVE('',#156,#187,#185,.T.) ;
#195=EDGE_CURVE('',#187,#194,#192,.T.) ;
#200=EDGE_CURVE('',#163,#194,#199,.T.) ;
#219=EDGE_CURVE('',#187,#218,#216,.F.) ;
#226=EDGE_CURVE('',#218,#225,#223,.T.) ;
#231=EDGE_CURVE('',#194,#225,#230,.F.) ;
#250=EDGE_CURVE('',#218,#249,#247,.F.) ;
#257=EDGE_CURVE('',#249,#256,#254,.T.) ;
#262=EDGE_CURVE('',#225,#256,#261,.F.) ;
#279=EDGE_CURVE('',#249,#116,#278,.F.) ;
#284=EDGE_CURVE('',#256,#118,#283,.F.) ;
#317=EDGE_CURVE('',#314,#316,#312,.T.) ;
#322=EDGE_CURVE('',#316,#314,#321,.T.) ;
#335=EDGE_CURVE('',#332,#334,#330,.T.) ;
#340=EDGE_CURVE('',#334,#332,#339,.T.) ;
#353=EDGE_CURVE('',#350,#352,#348,.T.) ;
#358=EDGE_CURVE('',#352,#350,#357,.T.) ;
#389=EDGE_CURVE('',#386,#388,#384,.T.) ;
#394=EDGE_CURVE('',#388,#386,#393,.T.) ;
#407=EDGE_CURVE('',#404,#406,#402,.T.) ;
#412=EDGE_CURVE('',#406,#404,#411,.T.) ;
#425=EDGE_CURVE('',#422,#424,#420,.T.) ;
#430=EDGE_CURVE('',#424,#422,#429,.T.) ;
#445=EDGE_CURVE('',#350,#424,#444,.F.) ;
#450=EDGE_CURVE('',#352,#422,#449,.F.) ;
#474=EDGE_CURVE('',#332,#406,#473,.F.) ;
#479=EDGE_CURVE('',#334,#404,#478,.F.) ;
#503=EDGE_CURVE('',#314,#388,#502,.F.) ;
#508=EDGE_CURVE('',#316,#386,#507,.F.) ;
#82=EDGE_LOOP('',(#83,#84,#85,#86)) ;
#99=EDGE_LOOP('',(#100,#101,#102,#103)) ;
#139=EDGE_LOOP('',(#140,#141,#142,#143)) ;
#170=EDGE_LOOP('',(#171,#172,#173,#174)) ;
#201=EDGE_LOOP('',(#202,#203,#204,#205)) ;
#232=EDGE_LOOP('',(#233,#234,#235,#236)) ;
#263=EDGE_LOOP('',(#264,#265,#266,#267)) ;
#285=EDGE_LOOP('',(#286,#287,#288,#289)) ;
#297=EDGE_LOOP('',(#298,#299,#300,#301,#302,#303)) ;
#305=EDGE_LOOP('',(#306,#307)) ;
#323=EDGE_LOOP('',(#324,#325)) ;
#341=EDGE_LOOP('',(#342,#343)) ;
#359=EDGE_LOOP('',(#360,#361)) ;
#369=EDGE_LOOP('',(#370,#371,#372,#373,#374,#375)) ;
#377=EDGE_LOOP('',(#378,#379)) ;
#395=EDGE_LOOP('',(#396,#397)) ;
#413=EDGE_LOOP('',(#414,#415)) ;
#431=EDGE_LOOP('',(#432,#433)) ;
#451=EDGE_LOOP('',(#452,#453,#454,#455)) ;
#458=EDGE_LOOP('',(#459,#460,#461,#462)) ;
#480=EDGE_LOOP('',(#481,#482,#483,#484)) ;
#487=EDGE_LOOP('',(#488,#489,#490,#491)) ;
#509=EDGE_LOOP('',(#510,#511,#512,#513)) ;
#516=EDGE_LOOP('',(#517,#518,#519,#520)) ;
#87=FACE_OUTER_BOUND('',#82,.T.) ;
#104=FACE_OUTER_BOUND('',#99,.T.) ;
#144=FACE_OUTER_BOUND('',#139,.T.) ;
#175=FACE_OUTER_BOUND('',#170,.T.) ;
#206=FACE_OUTER_BOUND('',#201,.T.) ;
#237=FACE_OUTER_BOUND('',#232,.T.) ;
#268=FACE_OUTER_BOUND('',#263,.T.) ;
#290=FACE_OUTER_BOUND('',#285,.T.) ;
#304=FACE_OUTER_BOUND('',#297,.T.) ;
#376=FACE_OUTER_BOUND('',#369,.T.) ;
#456=FACE_OUTER_BOUND('',#451,.T.) ;
#463=FACE_OUTER_BOUND('',#458,.T.) ;
#485=FACE_OUTER_BOUND('',#480,.T.) ;
#492=FACE_OUTER_BOUND('',#487,.T.) ;
#514=FACE_OUTER_BOUND('',#509,.T.) ;
#521=FACE_OUTER_BOUND('',#516,.T.) ;
#57=LINE('Line',#54,#56) ;
#73=LINE('Line',#70,#72) ;
#114=LINE('Line',#111,#113) ;
#123=LINE('Line',#120,#122) ;
#130=LINE('Line',#127,#129) ;
#137=LINE('Line',#134,#136) ;
#154=LINE('Line',#151,#153) ;
#161=LINE('Line',#158,#160) ;
#168=LINE('Line',#165,#167) ;
#185=LINE('Line',#182,#184) ;
#192=LINE('Line',#189,#191) ;
#199=LINE('Line',#196,#198) ;
#216=LINE('Line',#213,#215) ;
#223=LINE('Line',#220,#222) ;
#230=LINE('Line',#227,#229) ;
#247=LINE('Line',#244,#246) ;
#254=LINE('Line',#251,#253) ;
#261=LINE('Line',#258,#260) ;
#278=LINE('Line',#275,#277) ;
#283=LINE('Line',#280,#282) ;
#444=LINE('Line',#441,#443) ;
#449=LINE('Line',#446,#448) ;
#473=LINE('Line',#470,#472) ;
#478=LINE('Line',#475,#477) ;
#502=LINE('Line',#499,#501) ;
#507=LINE('Line',#504,#506) ;
#25=PLANE('Referenz_xy',#24) ;
#32=PLANE('Referenz_yz',#31) ;
#37=PLANE('Referenz_zx',#36) ;
#110=PLANE('',#109) ;
#150=PLANE('',#149) ;
#181=PLANE('',#180) ;
#212=PLANE('',#211) ;
#243=PLANE('',#242) ;
#274=PLANE('',#273) ;
#296=PLANE('',#295) ;
#368=PLANE('',#367) ;
#9=PRODUCT_CATEGORY_RELATIONSHIP(' ',' ',#7,#8) ;
#6=PRODUCT_DEFINITION_FORMATION_WITH_SPECIFIED_SOURCE('',' ',#5,.NOT_KNOWN.) ;
#20=SHAPE_DEFINITION_REPRESENTATION(#11,#19) ;
#59=VERTEX_POINT('',#58) ;
#61=VERTEX_POINT('',#60) ;
#68=VERTEX_POINT('',#67) ;
#75=VERTEX_POINT('',#74) ;
#116=VERTEX_POINT('',#115) ;
#118=VERTEX_POINT('',#117) ;
#125=VERTEX_POINT('',#124) ;
#132=VERTEX_POINT('',#131) ;
#156=VERTEX_POINT('',#155) ;
#163=VERTEX_POINT('',#162) ;
#187=VERTEX_POINT('',#186) ;
#194=VERTEX_POINT('',#193) ;
#218=VERTEX_POINT('',#217) ;
#225=VERTEX_POINT('',#224) ;
#249=VERTEX_POINT('',#248) ;
#256=VERTEX_POINT('',#255) ;
#314=VERTEX_POINT('',#313) ;
#316=VERTEX_POINT('',#315) ;
#332=VERTEX_POINT('',#331) ;
#334=VERTEX_POINT('',#333) ;
#350=VERTEX_POINT('',#349) ;
#352=VERTEX_POINT('',#351) ;
#386=VERTEX_POINT('',#385) ;
#388=VERTEX_POINT('',#387) ;
#404=VERTEX_POINT('',#403) ;
#406=VERTEX_POINT('',#405) ;
#422=VERTEX_POINT('',#421) ;
#424=VERTEX_POINT('',#423) ;
#12=(LENGTH_UNIT()NAMED_UNIT(*)SI_UNIT(.MILLI.,.METRE.)) ;
#13=(NAMED_UNIT(*)PLANE_ANGLE_UNIT()SI_UNIT($,.RADIAN.)) ;
#14=(NAMED_UNIT(*)SI_UNIT($,.STERADIAN.)SOLID_ANGLE_UNIT()) ;
#16=(GEOMETRIC_REPRESENTATION_CONTEXT(3)GLOBAL_UNCERTAINTY_ASSIGNED_CONTEXT((#15))GLOBAL_UNIT_ASSIGNED_CONTEXT((#12,#13,#14))REPRESENTATION_CONTEXT(' ',' ')) ;
ENDSEC;
END-ISO-10303-21;
