ISO-10303-21;
HEADER;
FILE_DESCRIPTION(('CATIA V5R24 STEP','CAx-IF Rec.Pracs.--- Model Styling and Organization---1.2---2011-12-15'),'2;1');

FILE_NAME ('001112-1_1_0168600000_0168600000.stp','2018-08-27T09:46:55+00:00',('none'),('Weidmueller'),'CATIA Version 5-6 Release 2014 SP4 HF52','CATIA V5 STEP AP214','none');

FILE_SCHEMA(('AUTOMOTIVE_DESIGN { 1 0 10303 214 1 1 1 1 }'));

ENDSEC;
DATA;
#5=PRODUCT('0168600000','','',(#2)) ;
#2=PRODUCT_CONTEXT(' ',#1,'mechanical') ;
#1=APPLICATION_CONTEXT('automotive design') ;
#10=PRODUCT_DEFINITION('',' ',#6,#3) ;
#3=PRODUCT_DEFINITION_CONTEXT('part definition',#1,' ') ;
#11=PRODUCT_DEFINITION_SHAPE(' ',' ',#10) ;
#335=MECHANICAL_DESIGN_GEOMETRIC_PRESENTATION_REPRESENTATION(' ',(#46),#16) ;
#19=SHAPE_REPRESENTATION(' ',(#18),#16) ;
#18=AXIS2_PLACEMENT_3D(' ',#17,$,$) ;
#24=AXIS2_PLACEMENT_3D('Plane Axis2P3D',#21,#22,#23) ;
#31=AXIS2_PLACEMENT_3D('Plane Axis2P3D',#28,#29,#30) ;
#36=AXIS2_PLACEMENT_3D('Plane Axis2P3D',#33,#34,#35) ;
#51=AXIS2_PLACEMENT_3D('Cylinder Axis2P3D',#48,#49,#50) ;
#64=AXIS2_PLACEMENT_3D('Circle Axis2P3D',#62,#63,$) ;
#78=AXIS2_PLACEMENT_3D('Circle Axis2P3D',#76,#77,$) ;
#91=AXIS2_PLACEMENT_3D('Cylinder Axis2P3D',#88,#89,#90) ;
#95=AXIS2_PLACEMENT_3D('Circle Axis2P3D',#93,#94,$) ;
#100=AXIS2_PLACEMENT_3D('Circle Axis2P3D',#98,#99,$) ;
#113=AXIS2_PLACEMENT_3D('Plane Axis2P3D',#110,#111,#112) ;
#123=AXIS2_PLACEMENT_3D('Plane Axis2P3D',#120,#121,#122) ;
#127=AXIS2_PLACEMENT_3D('Circle Axis2P3D',#125,#126,$) ;
#136=AXIS2_PLACEMENT_3D('Circle Axis2P3D',#134,#135,$) ;
#151=AXIS2_PLACEMENT_3D('Cylinder Axis2P3D',#148,#149,#150) ;
#155=AXIS2_PLACEMENT_3D('Circle Axis2P3D',#153,#154,$) ;
#176=AXIS2_PLACEMENT_3D('Circle Axis2P3D',#174,#175,$) ;
#190=AXIS2_PLACEMENT_3D('Circle Axis2P3D',#188,#189,$) ;
#214=AXIS2_PLACEMENT_3D('Cylinder Axis2P3D',#211,#212,#213) ;
#218=AXIS2_PLACEMENT_3D('Circle Axis2P3D',#216,#217,$) ;
#225=AXIS2_PLACEMENT_3D('Circle Axis2P3D',#223,#224,$) ;
#239=AXIS2_PLACEMENT_3D('Circle Axis2P3D',#237,#238,$) ;
#263=AXIS2_PLACEMENT_3D('Plane Axis2P3D',#260,#261,#262) ;
#290=AXIS2_PLACEMENT_3D('Plane Axis2P3D',#287,#288,#289) ;
#307=AXIS2_PLACEMENT_3D('Plane Axis2P3D',#304,#305,#306) ;
#324=AXIS2_PLACEMENT_3D('Plane Axis2P3D',#321,#322,#323) ;
#17=CARTESIAN_POINT(' ',(0.,0.,0.)) ;
#21=CARTESIAN_POINT('Axis2P3D Location',(0.,0.,0.)) ;
#28=CARTESIAN_POINT('Axis2P3D Location',(0.,0.,0.)) ;
#33=CARTESIAN_POINT('Axis2P3D Location',(0.,0.,0.)) ;
#48=CARTESIAN_POINT('Axis2P3D Location',(2.5,2.5,8.75)) ;
#53=CARTESIAN_POINT('Line Origine',(1.18362615716,3.21913830791,8.75)) ;
#57=CARTESIAN_POINT('Vertex',(1.18362615716,3.2191383079,3.5)) ;
#59=CARTESIAN_POINT('Vertex',(1.18362615716,3.2191383079,-1.64425327536E-015)) ;
#62=CARTESIAN_POINT('Axis2P3D Location',(2.5,2.5,-1.7763568394E-015)) ;
#66=CARTESIAN_POINT('Vertex',(3.81637384284,1.7808616921,-1.90846040344E-015)) ;
#69=CARTESIAN_POINT('Line Origine',(3.81637384284,1.78086169209,8.75)) ;
#73=CARTESIAN_POINT('Vertex',(3.81637384284,1.7808616921,3.5)) ;
#76=CARTESIAN_POINT('Axis2P3D Location',(2.5,2.5,3.5)) ;
#88=CARTESIAN_POINT('Axis2P3D Location',(2.5,2.5,8.75)) ;
#93=CARTESIAN_POINT('Axis2P3D Location',(2.5,2.5,0.)) ;
#98=CARTESIAN_POINT('Axis2P3D Location',(2.5,2.5,3.5)) ;
#110=CARTESIAN_POINT('Axis2P3D Location',(4.,2.5,0.)) ;
#120=CARTESIAN_POINT('Axis2P3D Location',(5.,2.5,3.5)) ;
#125=CARTESIAN_POINT('Axis2P3D Location',(2.5,2.5,3.5)) ;
#129=CARTESIAN_POINT('Vertex',(0.306043595076,3.69856384583,3.5)) ;
#131=CARTESIAN_POINT('Vertex',(4.69395640492,1.30143615417,3.5)) ;
#134=CARTESIAN_POINT('Axis2P3D Location',(2.5,2.5,3.5)) ;
#148=CARTESIAN_POINT('Axis2P3D Location',(2.5,2.5,8.75)) ;
#153=CARTESIAN_POINT('Axis2P3D Location',(2.5,2.5,17.5)) ;
#157=CARTESIAN_POINT('Vertex',(3.,4.94948974278,17.5)) ;
#159=CARTESIAN_POINT('Vertex',(4.69395640473,1.30143615349,17.5)) ;
#162=CARTESIAN_POINT('Line Origine',(4.69395640473,1.30143615349,8.75)) ;
#167=CARTESIAN_POINT('Line Origine',(0.306043595274,3.69856384651,8.75)) ;
#171=CARTESIAN_POINT('Vertex',(0.306043595274,3.69856384651,17.5)) ;
#174=CARTESIAN_POINT('Axis2P3D Location',(2.5,2.5,17.5)) ;
#178=CARTESIAN_POINT('Vertex',(2.,4.94948974278,17.5)) ;
#181=CARTESIAN_POINT('Line Origine',(2.,4.94948974278,8.75)) ;
#185=CARTESIAN_POINT('Vertex',(2.,4.94948974278,16.)) ;
#188=CARTESIAN_POINT('Axis2P3D Location',(2.5,2.5,16.)) ;
#192=CARTESIAN_POINT('Vertex',(3.,4.94948974278,16.)) ;
#195=CARTESIAN_POINT('Line Origine',(3.,4.94948974278,8.75)) ;
#211=CARTESIAN_POINT('Axis2P3D Location',(2.5,2.5,8.75)) ;
#216=CARTESIAN_POINT('Axis2P3D Location',(2.5,2.5,17.5)) ;
#220=CARTESIAN_POINT('Vertex',(2.,0.0505102572169,17.5)) ;
#223=CARTESIAN_POINT('Axis2P3D Location',(2.5,2.5,17.5)) ;
#227=CARTESIAN_POINT('Vertex',(3.,0.0505102572169,17.5)) ;
#230=CARTESIAN_POINT('Line Origine',(3.,0.0505102572169,8.75)) ;
#234=CARTESIAN_POINT('Vertex',(3.,0.0505102572169,16.)) ;
#237=CARTESIAN_POINT('Axis2P3D Location',(2.5,2.5,16.)) ;
#241=CARTESIAN_POINT('Vertex',(2.,0.0505102572169,16.)) ;
#244=CARTESIAN_POINT('Line Origine',(2.,0.0505102572169,8.75)) ;
#260=CARTESIAN_POINT('Axis2P3D Location',(2.5,2.5,17.5)) ;
#265=CARTESIAN_POINT('Line Origine',(3.,2.5,17.5)) ;
#276=CARTESIAN_POINT('Line Origine',(2.,2.5,17.5)) ;
#287=CARTESIAN_POINT('Axis2P3D Location',(2.,2.5,16.)) ;
#292=CARTESIAN_POINT('Line Origine',(2.,2.5,16.)) ;
#304=CARTESIAN_POINT('Axis2P3D Location',(2.,2.5,16.)) ;
#309=CARTESIAN_POINT('Line Origine',(3.,2.5,16.)) ;
#321=CARTESIAN_POINT('Axis2P3D Location',(3.,2.5,16.)) ;
#22=DIRECTION('Axis2P3D Direction',(0.,0.,1.)) ;
#23=DIRECTION('Axis2P3D XDirection',(1.,0.,0.)) ;
#29=DIRECTION('Axis2P3D Direction',(1.,0.,0.)) ;
#30=DIRECTION('Axis2P3D XDirection',(0.,1.,0.)) ;
#34=DIRECTION('Axis2P3D Direction',(0.,1.,0.)) ;
#35=DIRECTION('Axis2P3D XDirection',(0.,0.,1.)) ;
#49=DIRECTION('Axis2P3D Direction',(0.,1.83697019872E-016,-1.)) ;
#50=DIRECTION('Axis2P3D XDirection',(0.87758256189,-0.479425538604,-8.80690426922E-017)) ;
#54=DIRECTION('Vector Direction',(0.,1.83697057565E-016,-1.)) ;
#63=DIRECTION('Axis2P3D Direction',(0.,1.83697019872E-016,-1.)) ;
#70=DIRECTION('Vector Direction',(0.,1.83697057565E-016,-1.)) ;
#77=DIRECTION('Axis2P3D Direction',(0.,1.83697019872E-016,-1.)) ;
#89=DIRECTION('Axis2P3D Direction',(0.,1.83697019872E-016,-1.)) ;
#90=DIRECTION('Axis2P3D XDirection',(-0.87758256189,0.479425538604,8.80690426922E-017)) ;
#94=DIRECTION('Axis2P3D Direction',(0.,1.83697019872E-016,-1.)) ;
#99=DIRECTION('Axis2P3D Direction',(0.,1.83697019872E-016,-1.)) ;
#111=DIRECTION('Axis2P3D Direction',(0.,1.83697019872E-016,-1.)) ;
#112=DIRECTION('Axis2P3D XDirection',(1.,0.,0.)) ;
#121=DIRECTION('Axis2P3D Direction',(0.,1.83697019872E-016,-1.)) ;
#122=DIRECTION('Axis2P3D XDirection',(1.,0.,0.)) ;
#126=DIRECTION('Axis2P3D Direction',(0.,1.83697019872E-016,-1.)) ;
#135=DIRECTION('Axis2P3D Direction',(0.,1.83697019872E-016,-1.)) ;
#149=DIRECTION('Axis2P3D Direction',(0.,1.83697019872E-016,-1.)) ;
#150=DIRECTION('Axis2P3D XDirection',(-0.87758256189,0.479425538604,8.80690426922E-017)) ;
#154=DIRECTION('Axis2P3D Direction',(0.,1.83697019872E-016,-1.)) ;
#163=DIRECTION('Vector Direction',(0.,1.83697057565E-016,-1.)) ;
#168=DIRECTION('Vector Direction',(0.,1.83697057565E-016,-1.)) ;
#175=DIRECTION('Axis2P3D Direction',(0.,1.83697019872E-016,-1.)) ;
#182=DIRECTION('Vector Direction',(0.,1.83697057565E-016,-1.)) ;
#189=DIRECTION('Axis2P3D Direction',(0.,1.83697019872E-016,-1.)) ;
#196=DIRECTION('Vector Direction',(0.,1.83697057565E-016,-1.)) ;
#212=DIRECTION('Axis2P3D Direction',(0.,1.83697019872E-016,-1.)) ;
#213=DIRECTION('Axis2P3D XDirection',(0.87758256189,-0.479425538604,-8.80690426922E-017)) ;
#217=DIRECTION('Axis2P3D Direction',(0.,1.83697019872E-016,-1.)) ;
#224=DIRECTION('Axis2P3D Direction',(0.,1.83697019872E-016,-1.)) ;
#231=DIRECTION('Vector Direction',(0.,1.83697057565E-016,-1.)) ;
#238=DIRECTION('Axis2P3D Direction',(0.,1.83697019872E-016,-1.)) ;
#245=DIRECTION('Vector Direction',(0.,1.83697057565E-016,-1.)) ;
#261=DIRECTION('Axis2P3D Direction',(0.,1.83697019872E-016,-1.)) ;
#262=DIRECTION('Axis2P3D XDirection',(1.,0.,0.)) ;
#266=DIRECTION('Vector Direction',(0.,-1.,0.)) ;
#277=DIRECTION('Vector Direction',(0.,-1.,0.)) ;
#288=DIRECTION('Axis2P3D Direction',(1.,0.,0.)) ;
#289=DIRECTION('Axis2P3D XDirection',(0.,-1.83697019872E-016,1.)) ;
#293=DIRECTION('Vector Direction',(0.,-1.,0.)) ;
#305=DIRECTION('Axis2P3D Direction',(0.,1.83697019872E-016,-1.)) ;
#306=DIRECTION('Axis2P3D XDirection',(1.,0.,0.)) ;
#310=DIRECTION('Vector Direction',(0.,-1.,0.)) ;
#322=DIRECTION('Axis2P3D Direction',(1.,0.,0.)) ;
#323=DIRECTION('Axis2P3D XDirection',(0.,-1.83697019872E-016,1.)) ;
#8=PRODUCT_RELATED_PRODUCT_CATEGORY('part',$,(#5)) ;
#7=PRODUCT_CATEGORY('part','specification') ;
#46=STYLED_ITEM(' ',(#45),#38) ;
#45=PRESENTATION_STYLE_ASSIGNMENT((#44)) ;
#44=SURFACE_STYLE_USAGE(.BOTH.,#43) ;
#43=SURFACE_SIDE_STYLE(' ',(#42)) ;
#42=SURFACE_STYLE_FILL_AREA(#41) ;
#41=FILL_AREA_STYLE(' ',(#40)) ;
#40=FILL_AREA_STYLE_COLOUR(' ',#39) ;
#55=VECTOR('Line Direction',#54,1.) ;
#71=VECTOR('Line Direction',#70,1.) ;
#164=VECTOR('Line Direction',#163,1.) ;
#169=VECTOR('Line Direction',#168,1.) ;
#183=VECTOR('Line Direction',#182,1.) ;
#197=VECTOR('Line Direction',#196,1.) ;
#232=VECTOR('Line Direction',#231,1.) ;
#246=VECTOR('Line Direction',#245,1.) ;
#267=VECTOR('Line Direction',#266,1.) ;
#278=VECTOR('Line Direction',#277,1.) ;
#294=VECTOR('Line Direction',#293,1.) ;
#311=VECTOR('Line Direction',#310,1.) ;
#15=UNCERTAINTY_MEASURE_WITH_UNIT(LENGTH_MEASURE(0.005),#12,'distance_accuracy_value','CONFUSED CURVE UNCERTAINTY') ;
#334=SHAPE_REPRESENTATION_RELATIONSHIP(' ',' ',#19,#333) ;
#82=ORIENTED_EDGE('',*,*,#61,.T.) ;
#83=ORIENTED_EDGE('',*,*,#68,.F.) ;
#84=ORIENTED_EDGE('',*,*,#75,.F.) ;
#85=ORIENTED_EDGE('',*,*,#80,.T.) ;
#104=ORIENTED_EDGE('',*,*,#75,.T.) ;
#105=ORIENTED_EDGE('',*,*,#97,.F.) ;
#106=ORIENTED_EDGE('',*,*,#61,.F.) ;
#107=ORIENTED_EDGE('',*,*,#102,.T.) ;
#116=ORIENTED_EDGE('',*,*,#97,.T.) ;
#117=ORIENTED_EDGE('',*,*,#68,.T.) ;
#140=ORIENTED_EDGE('',*,*,#133,.T.) ;
#141=ORIENTED_EDGE('',*,*,#138,.T.) ;
#144=ORIENTED_EDGE('',*,*,#80,.F.) ;
#145=ORIENTED_EDGE('',*,*,#102,.F.) ;
#201=ORIENTED_EDGE('',*,*,#161,.T.) ;
#202=ORIENTED_EDGE('',*,*,#166,.T.) ;
#203=ORIENTED_EDGE('',*,*,#133,.F.) ;
#204=ORIENTED_EDGE('',*,*,#173,.F.) ;
#205=ORIENTED_EDGE('',*,*,#180,.T.) ;
#206=ORIENTED_EDGE('',*,*,#187,.T.) ;
#207=ORIENTED_EDGE('',*,*,#194,.T.) ;
#208=ORIENTED_EDGE('',*,*,#199,.T.) ;
#250=ORIENTED_EDGE('',*,*,#222,.T.) ;
#251=ORIENTED_EDGE('',*,*,#173,.T.) ;
#252=ORIENTED_EDGE('',*,*,#138,.F.) ;
#253=ORIENTED_EDGE('',*,*,#166,.F.) ;
#254=ORIENTED_EDGE('',*,*,#229,.T.) ;
#255=ORIENTED_EDGE('',*,*,#236,.T.) ;
#256=ORIENTED_EDGE('',*,*,#243,.T.) ;
#257=ORIENTED_EDGE('',*,*,#248,.F.) ;
#271=ORIENTED_EDGE('',*,*,#269,.T.) ;
#272=ORIENTED_EDGE('',*,*,#229,.F.) ;
#273=ORIENTED_EDGE('',*,*,#161,.F.) ;
#282=ORIENTED_EDGE('',*,*,#280,.F.) ;
#283=ORIENTED_EDGE('',*,*,#180,.F.) ;
#284=ORIENTED_EDGE('',*,*,#222,.F.) ;
#298=ORIENTED_EDGE('',*,*,#187,.F.) ;
#299=ORIENTED_EDGE('',*,*,#280,.T.) ;
#300=ORIENTED_EDGE('',*,*,#248,.T.) ;
#301=ORIENTED_EDGE('',*,*,#296,.F.) ;
#315=ORIENTED_EDGE('',*,*,#296,.T.) ;
#316=ORIENTED_EDGE('',*,*,#243,.F.) ;
#317=ORIENTED_EDGE('',*,*,#313,.F.) ;
#318=ORIENTED_EDGE('',*,*,#194,.F.) ;
#327=ORIENTED_EDGE('',*,*,#313,.T.) ;
#328=ORIENTED_EDGE('',*,*,#236,.F.) ;
#329=ORIENTED_EDGE('',*,*,#269,.F.) ;
#330=ORIENTED_EDGE('',*,*,#199,.F.) ;
#146=FACE_BOUND('',#143,.T.) ;
#47=CLOSED_SHELL('Closed Shell',(#87,#109,#119,#147,#210,#259,#275,#286,#303,#320,#332)) ;
#333=ADVANCED_BREP_SHAPE_REPRESENTATION('NONE',(#38),#16) ;
#87=ADVANCED_FACE('Manifold Brep',(#86),#52,.T.) ;
#109=ADVANCED_FACE('Manifold Brep',(#108),#92,.T.) ;
#119=ADVANCED_FACE('Manifold Brep',(#118),#114,.T.) ;
#147=ADVANCED_FACE('Manifold Brep',(#142,#146),#124,.T.) ;
#210=ADVANCED_FACE('Manifold Brep',(#209),#152,.T.) ;
#259=ADVANCED_FACE('Manifold Brep',(#258),#215,.T.) ;
#275=ADVANCED_FACE('Manifold Brep',(#274),#264,.F.) ;
#286=ADVANCED_FACE('Manifold Brep',(#285),#264,.F.) ;
#303=ADVANCED_FACE('Manifold Brep',(#302),#291,.T.) ;
#320=ADVANCED_FACE('Manifold Brep',(#319),#308,.F.) ;
#332=ADVANCED_FACE('Manifold Brep',(#331),#325,.F.) ;
#4=APPLICATION_PROTOCOL_DEFINITION('international standard','automotive_design',2001,#1) ;
#38=MANIFOLD_SOLID_BREP('Manifold Brep',#47) ;
#65=CIRCLE('generated circle',#64,1.5) ;
#79=CIRCLE('generated circle',#78,1.5) ;
#96=CIRCLE('generated circle',#95,1.5) ;
#101=CIRCLE('generated circle',#100,1.5) ;
#128=CIRCLE('generated circle',#127,2.49999999985) ;
#137=CIRCLE('generated circle',#136,2.49999999985) ;
#156=CIRCLE('generated circle',#155,2.5) ;
#177=CIRCLE('generated circle',#176,2.5) ;
#191=CIRCLE('generated circle',#190,2.5) ;
#219=CIRCLE('generated circle',#218,2.5) ;
#226=CIRCLE('generated circle',#225,2.5) ;
#240=CIRCLE('generated circle',#239,2.5) ;
#39=COLOUR_RGB('Colour',0.823529411765,0.823529411765,1.) ;
#26=CONSTRUCTIVE_GEOMETRY_REPRESENTATION('supplemental geometry',(#25,#32,#37),#16) ;
#27=CONSTRUCTIVE_GEOMETRY_REPRESENTATION_RELATIONSHIP('supplemental geometry','',#19,#26) ;
#52=CYLINDRICAL_SURFACE('generated cylinder',#51,1.5) ;
#92=CYLINDRICAL_SURFACE('generated cylinder',#91,1.5) ;
#152=CYLINDRICAL_SURFACE('generated cylinder',#151,2.5) ;
#215=CYLINDRICAL_SURFACE('generated cylinder',#214,2.5) ;
#61=EDGE_CURVE('',#58,#60,#56,.T.) ;
#68=EDGE_CURVE('',#67,#60,#65,.T.) ;
#75=EDGE_CURVE('',#74,#67,#72,.T.) ;
#80=EDGE_CURVE('',#74,#58,#79,.T.) ;
#97=EDGE_CURVE('',#60,#67,#96,.T.) ;
#102=EDGE_CURVE('',#58,#74,#101,.T.) ;
#133=EDGE_CURVE('',#130,#132,#128,.T.) ;
#138=EDGE_CURVE('',#132,#130,#137,.T.) ;
#161=EDGE_CURVE('',#158,#160,#156,.T.) ;
#166=EDGE_CURVE('',#160,#132,#165,.T.) ;
#173=EDGE_CURVE('',#172,#130,#170,.T.) ;
#180=EDGE_CURVE('',#172,#179,#177,.T.) ;
#187=EDGE_CURVE('',#179,#186,#184,.T.) ;
#194=EDGE_CURVE('',#186,#193,#191,.T.) ;
#199=EDGE_CURVE('',#193,#158,#198,.F.) ;
#222=EDGE_CURVE('',#221,#172,#219,.T.) ;
#229=EDGE_CURVE('',#160,#228,#226,.T.) ;
#236=EDGE_CURVE('',#228,#235,#233,.T.) ;
#243=EDGE_CURVE('',#235,#242,#240,.T.) ;
#248=EDGE_CURVE('',#221,#242,#247,.T.) ;
#269=EDGE_CURVE('',#158,#228,#268,.T.) ;
#280=EDGE_CURVE('',#179,#221,#279,.T.) ;
#296=EDGE_CURVE('',#186,#242,#295,.T.) ;
#313=EDGE_CURVE('',#193,#235,#312,.T.) ;
#81=EDGE_LOOP('',(#82,#83,#84,#85)) ;
#103=EDGE_LOOP('',(#104,#105,#106,#107)) ;
#115=EDGE_LOOP('',(#116,#117)) ;
#139=EDGE_LOOP('',(#140,#141)) ;
#143=EDGE_LOOP('',(#144,#145)) ;
#200=EDGE_LOOP('',(#201,#202,#203,#204,#205,#206,#207,#208)) ;
#249=EDGE_LOOP('',(#250,#251,#252,#253,#254,#255,#256,#257)) ;
#270=EDGE_LOOP('',(#271,#272,#273)) ;
#281=EDGE_LOOP('',(#282,#283,#284)) ;
#297=EDGE_LOOP('',(#298,#299,#300,#301)) ;
#314=EDGE_LOOP('',(#315,#316,#317,#318)) ;
#326=EDGE_LOOP('',(#327,#328,#329,#330)) ;
#86=FACE_OUTER_BOUND('',#81,.T.) ;
#108=FACE_OUTER_BOUND('',#103,.T.) ;
#118=FACE_OUTER_BOUND('',#115,.T.) ;
#142=FACE_OUTER_BOUND('',#139,.T.) ;
#209=FACE_OUTER_BOUND('',#200,.T.) ;
#258=FACE_OUTER_BOUND('',#249,.T.) ;
#274=FACE_OUTER_BOUND('',#270,.T.) ;
#285=FACE_OUTER_BOUND('',#281,.T.) ;
#302=FACE_OUTER_BOUND('',#297,.T.) ;
#319=FACE_OUTER_BOUND('',#314,.T.) ;
#331=FACE_OUTER_BOUND('',#326,.T.) ;
#56=LINE('Line',#53,#55) ;
#72=LINE('Line',#69,#71) ;
#165=LINE('Line',#162,#164) ;
#170=LINE('Line',#167,#169) ;
#184=LINE('Line',#181,#183) ;
#198=LINE('Line',#195,#197) ;
#233=LINE('Line',#230,#232) ;
#247=LINE('Line',#244,#246) ;
#268=LINE('Line',#265,#267) ;
#279=LINE('Line',#276,#278) ;
#295=LINE('Line',#292,#294) ;
#312=LINE('Line',#309,#311) ;
#25=PLANE('Referenz_xy',#24) ;
#32=PLANE('Referenz_yz',#31) ;
#37=PLANE('Referenz_zx',#36) ;
#114=PLANE('',#113) ;
#124=PLANE('',#123) ;
#264=PLANE('',#263) ;
#291=PLANE('',#290) ;
#308=PLANE('',#307) ;
#325=PLANE('',#324) ;
#9=PRODUCT_CATEGORY_RELATIONSHIP(' ',' ',#7,#8) ;
#6=PRODUCT_DEFINITION_FORMATION_WITH_SPECIFIED_SOURCE('',' ',#5,.NOT_KNOWN.) ;
#20=SHAPE_DEFINITION_REPRESENTATION(#11,#19) ;
#58=VERTEX_POINT('',#57) ;
#60=VERTEX_POINT('',#59) ;
#67=VERTEX_POINT('',#66) ;
#74=VERTEX_POINT('',#73) ;
#130=VERTEX_POINT('',#129) ;
#132=VERTEX_POINT('',#131) ;
#158=VERTEX_POINT('',#157) ;
#160=VERTEX_POINT('',#159) ;
#172=VERTEX_POINT('',#171) ;
#179=VERTEX_POINT('',#178) ;
#186=VERTEX_POINT('',#185) ;
#193=VERTEX_POINT('',#192) ;
#221=VERTEX_POINT('',#220) ;
#228=VERTEX_POINT('',#227) ;
#235=VERTEX_POINT('',#234) ;
#242=VERTEX_POINT('',#241) ;
#12=(LENGTH_UNIT()NAMED_UNIT(*)SI_UNIT(.MILLI.,.METRE.)) ;
#13=(NAMED_UNIT(*)PLANE_ANGLE_UNIT()SI_UNIT($,.RADIAN.)) ;
#14=(NAMED_UNIT(*)SI_UNIT($,.STERADIAN.)SOLID_ANGLE_UNIT()) ;
#16=(GEOMETRIC_REPRESENTATION_CONTEXT(3)GLOBAL_UNCERTAINTY_ASSIGNED_CONTEXT((#15))GLOBAL_UNIT_ASSIGNED_CONTEXT((#12,#13,#14))REPRESENTATION_CONTEXT(' ',' ')) ;
ENDSEC;
END-ISO-10303-21;
