ISO-10303-21;
HEADER;
FILE_DESCRIPTION(('CATIA V5 STEP Exchange','CAx-IF Rec.Pracs.--- Model Styling and Organization---1.4--- 2014-01-23'),'2;1');

FILE_NAME ('029715-2_0', '2021-12-14T12:21:51+00:00', ('none'), ('Weidmueller'), 'CATIA Version 5-6 Release 2016 SP3 HF44', 'CATIA V5 STEP AP214', 'none');

FILE_SCHEMA(('AUTOMOTIVE_DESIGN { 1 0 10303 214 1 1 1 1 }'));

ENDSEC;
DATA;
#5=PRODUCT('61478_SM_DIA_60-22_MM','','GERAETEMARKIERER\X2\000D\X0\\X2\000A\X0\<Q-CHECKER_SEAL> Q-Checker Version 2.14.8  \X2\000A\X0\CATIA-Version         : Catia V5 R20 SP5 Build Date 01-06-2014.17.15\X2\000A\X0\Model size (in KByte) : 0\X2\000A\X0\Checking date         : 2015-08-18 13:40:16\X2\000A\X0\Checking profile      : ADMIN / Release_2D-3D [CATPart]\X2\000A\X0\Model assessment      : In Ordnung (IO)\X2\000A\X0\Total weight sum      : 0\X2\000A\X0\<CROSS_CHECK_SUM>\X2\000A\X0\  <CHKSUM_DATE> 1225134190 </CHKSUM_DATE>\X2\000A\X0\  <CHKSUM_ENTITIES> -1101531862 </CHKSUM_ENTITIES>\X2\000A\X0\  <CHKSUM_PROFILE> 1594213346 </CHKSUM_PROFILE>\X2\000A\X0\  <CHKSUM_DIMENSION> -186917087 </CHKSUM_DIMENSION>\X2\000A\X0\  <CHKSUM_PROJINTERSEC> -896974048 </CHKSUM_PROJINTERSEC>\X2\000A\X0\  <CHKSUM_IDENTCRV> -896974048 </CHKSUM_IDENTCRV>\X2\000A\X0\  <CHKSUM_INFINITY> 138018827 </CHKSUM_INFINITY>\X2\000A\X0\</CROSS_CHECK_SUM>\X2\000A\X0\</Q-CHECKER_SEAL> \X2\000A\X0\ \X2\000D\X0\\X2\000A\X0\ \X2\000D\X0\\X2\000A\X0\ \X2\000D\X0\\X2\000A\X0\',(#2)) ;
#2=PRODUCT_CONTEXT(' ',#1,'mechanical') ;
#1=APPLICATION_CONTEXT('automotive design') ;
#10=PRODUCT_DEFINITION('',' ',#6,#3) ;
#3=PRODUCT_DEFINITION_CONTEXT('part definition',#1,' ') ;
#11=PRODUCT_DEFINITION_SHAPE(' ',' ',#10) ;
#176=MECHANICAL_DESIGN_GEOMETRIC_PRESENTATION_REPRESENTATION(' ',(#29),#16) ;
#19=SHAPE_REPRESENTATION(' ',(#18),#16) ;
#18=AXIS2_PLACEMENT_3D(' ',#17,$,$) ;
#35=AXIS2_PLACEMENT_3D('Cylinder Axis2P3D',#32,#33,#34) ;
#48=AXIS2_PLACEMENT_3D('Circle Axis2P3D',#46,#47,$) ;
#62=AXIS2_PLACEMENT_3D('Circle Axis2P3D',#60,#61,$) ;
#74=AXIS2_PLACEMENT_3D('Circle Axis2P3D',#72,#73,$) ;
#79=AXIS2_PLACEMENT_3D('Circle Axis2P3D',#77,#78,$) ;
#92=AXIS2_PLACEMENT_3D('Cylinder Axis2P3D',#89,#90,#91) ;
#96=AXIS2_PLACEMENT_3D('Circle Axis2P3D',#94,#95,$) ;
#112=AXIS2_PLACEMENT_3D('Circle Axis2P3D',#110,#111,$) ;
#131=AXIS2_PLACEMENT_3D('Circle Axis2P3D',#129,#130,$) ;
#136=AXIS2_PLACEMENT_3D('Circle Axis2P3D',#134,#135,$) ;
#149=AXIS2_PLACEMENT_3D('Plane Axis2P3D',#146,#147,#148) ;
#163=AXIS2_PLACEMENT_3D('Plane Axis2P3D',#160,#161,#162) ;
#17=CARTESIAN_POINT(' ',(0.,0.,0.)) ;
#32=CARTESIAN_POINT('Axis2P3D Location',(30.,30.,0.05)) ;
#37=CARTESIAN_POINT('Line Origine',(30.,60.,0.05)) ;
#41=CARTESIAN_POINT('Vertex',(30.,60.,0.)) ;
#43=CARTESIAN_POINT('Vertex',(30.,60.,0.1)) ;
#46=CARTESIAN_POINT('Axis2P3D Location',(30.,30.,0.)) ;
#50=CARTESIAN_POINT('Vertex',(30.,-1.04074261147E-030,1.04074261147E-030)) ;
#53=CARTESIAN_POINT('Line Origine',(30.,-1.04074261147E-030,0.05)) ;
#57=CARTESIAN_POINT('Vertex',(30.,-1.04074261147E-030,0.1)) ;
#60=CARTESIAN_POINT('Axis2P3D Location',(30.,30.,0.1)) ;
#72=CARTESIAN_POINT('Axis2P3D Location',(30.,30.,0.)) ;
#77=CARTESIAN_POINT('Axis2P3D Location',(30.,30.,0.1)) ;
#89=CARTESIAN_POINT('Axis2P3D Location',(30.,30.,0.05)) ;
#94=CARTESIAN_POINT('Axis2P3D Location',(30.,30.,0.1)) ;
#98=CARTESIAN_POINT('Vertex',(30.,18.75,0.1)) ;
#100=CARTESIAN_POINT('Vertex',(30.,41.25,0.1)) ;
#103=CARTESIAN_POINT('Line Origine',(30.,41.25,0.05)) ;
#107=CARTESIAN_POINT('Vertex',(30.,41.25,0.)) ;
#110=CARTESIAN_POINT('Axis2P3D Location',(30.,30.,0.)) ;
#114=CARTESIAN_POINT('Vertex',(30.,18.75,8.43614877747E-032)) ;
#117=CARTESIAN_POINT('Line Origine',(30.,18.75,0.05)) ;
#129=CARTESIAN_POINT('Axis2P3D Location',(30.,30.,0.1)) ;
#134=CARTESIAN_POINT('Axis2P3D Location',(30.,30.,0.)) ;
#146=CARTESIAN_POINT('Axis2P3D Location',(30.,30.,0.)) ;
#160=CARTESIAN_POINT('Axis2P3D Location',(30.,30.,0.1)) ;
#33=DIRECTION('Axis2P3D Direction',(6.12323399574E-017,3.74939945665E-033,1.)) ;
#34=DIRECTION('Axis2P3D XDirection',(-6.12323399574E-017,1.,0.)) ;
#38=DIRECTION('Vector Direction',(0.,0.,1.)) ;
#47=DIRECTION('Axis2P3D Direction',(6.12323399574E-017,3.74939945665E-033,1.)) ;
#54=DIRECTION('Vector Direction',(0.,0.,1.)) ;
#61=DIRECTION('Axis2P3D Direction',(6.12323399574E-017,3.74939945665E-033,1.)) ;
#73=DIRECTION('Axis2P3D Direction',(6.12323399574E-017,3.74939945665E-033,1.)) ;
#78=DIRECTION('Axis2P3D Direction',(6.12323399574E-017,3.74939945665E-033,1.)) ;
#90=DIRECTION('Axis2P3D Direction',(6.12323399574E-017,3.74939945665E-033,1.)) ;
#91=DIRECTION('Axis2P3D XDirection',(-6.12323399574E-017,1.,0.)) ;
#95=DIRECTION('Axis2P3D Direction',(6.12323399574E-017,3.74939945665E-033,1.)) ;
#104=DIRECTION('Vector Direction',(0.,0.,1.)) ;
#111=DIRECTION('Axis2P3D Direction',(6.12323399574E-017,3.74939945665E-033,1.)) ;
#118=DIRECTION('Vector Direction',(0.,0.,1.)) ;
#130=DIRECTION('Axis2P3D Direction',(6.12323399574E-017,3.74939945665E-033,1.)) ;
#135=DIRECTION('Axis2P3D Direction',(6.12323399574E-017,3.74939945665E-033,1.)) ;
#147=DIRECTION('Axis2P3D Direction',(6.12323399574E-017,3.74939945665E-033,1.)) ;
#148=DIRECTION('Axis2P3D XDirection',(-6.12323399574E-017,1.,0.)) ;
#161=DIRECTION('Axis2P3D Direction',(6.12323399574E-017,3.74939945665E-033,1.)) ;
#162=DIRECTION('Axis2P3D XDirection',(-6.12323399574E-017,1.,0.)) ;
#30=PRESENTATION_LAYER_ASSIGNMENT('1',' ',(#21)) ;
#8=PRODUCT_RELATED_PRODUCT_CATEGORY('part',$,(#5)) ;
#7=PRODUCT_CATEGORY('part','specification') ;
#29=STYLED_ITEM(' ',(#28),#21) ;
#28=PRESENTATION_STYLE_ASSIGNMENT((#27)) ;
#27=SURFACE_STYLE_USAGE(.BOTH.,#26) ;
#26=SURFACE_SIDE_STYLE(' ',(#25)) ;
#25=SURFACE_STYLE_FILL_AREA(#24) ;
#24=FILL_AREA_STYLE(' ',(#23)) ;
#23=FILL_AREA_STYLE_COLOUR(' ',#22) ;
#39=VECTOR('Line Direction',#38,1.) ;
#55=VECTOR('Line Direction',#54,1.) ;
#105=VECTOR('Line Direction',#104,1.) ;
#119=VECTOR('Line Direction',#118,1.) ;
#15=UNCERTAINTY_MEASURE_WITH_UNIT(LENGTH_MEASURE(0.005),#12,'distance_accuracy_value','CONFUSED CURVE UNCERTAINTY') ;
#175=SHAPE_REPRESENTATION_RELATIONSHIP(' ',' ',#19,#174) ;
#66=ORIENTED_EDGE('',*,*,#45,.F.) ;
#67=ORIENTED_EDGE('',*,*,#52,.T.) ;
#68=ORIENTED_EDGE('',*,*,#59,.T.) ;
#69=ORIENTED_EDGE('',*,*,#64,.F.) ;
#83=ORIENTED_EDGE('',*,*,#59,.F.) ;
#84=ORIENTED_EDGE('',*,*,#76,.T.) ;
#85=ORIENTED_EDGE('',*,*,#45,.T.) ;
#86=ORIENTED_EDGE('',*,*,#81,.F.) ;
#123=ORIENTED_EDGE('',*,*,#102,.T.) ;
#124=ORIENTED_EDGE('',*,*,#109,.F.) ;
#125=ORIENTED_EDGE('',*,*,#116,.F.) ;
#126=ORIENTED_EDGE('',*,*,#121,.T.) ;
#140=ORIENTED_EDGE('',*,*,#133,.T.) ;
#141=ORIENTED_EDGE('',*,*,#121,.F.) ;
#142=ORIENTED_EDGE('',*,*,#138,.F.) ;
#143=ORIENTED_EDGE('',*,*,#109,.T.) ;
#152=ORIENTED_EDGE('',*,*,#76,.F.) ;
#153=ORIENTED_EDGE('',*,*,#52,.F.) ;
#156=ORIENTED_EDGE('',*,*,#138,.T.) ;
#157=ORIENTED_EDGE('',*,*,#116,.T.) ;
#166=ORIENTED_EDGE('',*,*,#64,.T.) ;
#167=ORIENTED_EDGE('',*,*,#81,.T.) ;
#170=ORIENTED_EDGE('',*,*,#102,.F.) ;
#171=ORIENTED_EDGE('',*,*,#133,.F.) ;
#158=FACE_BOUND('',#155,.T.) ;
#172=FACE_BOUND('',#169,.T.) ;
#31=CLOSED_SHELL('Closed Shell',(#71,#88,#128,#145,#159,#173)) ;
#174=ADVANCED_BREP_SHAPE_REPRESENTATION('NONE',(#21),#16) ;
#71=ADVANCED_FACE('S3D gedreht',(#70),#36,.T.) ;
#88=ADVANCED_FACE('S3D gedreht',(#87),#36,.T.) ;
#128=ADVANCED_FACE('S3D gedreht',(#127),#93,.F.) ;
#145=ADVANCED_FACE('S3D gedreht',(#144),#93,.F.) ;
#159=ADVANCED_FACE('S3D gedreht',(#154,#158),#150,.F.) ;
#173=ADVANCED_FACE('S3D gedreht',(#168,#172),#164,.T.) ;
#4=APPLICATION_PROTOCOL_DEFINITION('international standard','automotive_design',2001,#1) ;
#21=MANIFOLD_SOLID_BREP('S3D gedreht',#31) ;
#49=CIRCLE('generated circle',#48,30.) ;
#63=CIRCLE('generated circle',#62,30.) ;
#75=CIRCLE('generated circle',#74,30.) ;
#80=CIRCLE('generated circle',#79,30.) ;
#97=CIRCLE('generated circle',#96,11.25) ;
#113=CIRCLE('generated circle',#112,11.25) ;
#132=CIRCLE('generated circle',#131,11.25) ;
#137=CIRCLE('generated circle',#136,11.25) ;
#36=CYLINDRICAL_SURFACE('generated cylinder',#35,30.) ;
#93=CYLINDRICAL_SURFACE('generated cylinder',#92,11.25) ;
#22=DRAUGHTING_PRE_DEFINED_COLOUR('yellow') ;
#45=EDGE_CURVE('',#42,#44,#40,.T.) ;
#52=EDGE_CURVE('',#42,#51,#49,.T.) ;
#59=EDGE_CURVE('',#51,#58,#56,.T.) ;
#64=EDGE_CURVE('',#44,#58,#63,.T.) ;
#76=EDGE_CURVE('',#51,#42,#75,.T.) ;
#81=EDGE_CURVE('',#58,#44,#80,.T.) ;
#102=EDGE_CURVE('',#99,#101,#97,.T.) ;
#109=EDGE_CURVE('',#108,#101,#106,.T.) ;
#116=EDGE_CURVE('',#115,#108,#113,.T.) ;
#121=EDGE_CURVE('',#115,#99,#120,.T.) ;
#133=EDGE_CURVE('',#101,#99,#132,.T.) ;
#138=EDGE_CURVE('',#108,#115,#137,.T.) ;
#65=EDGE_LOOP('',(#66,#67,#68,#69)) ;
#82=EDGE_LOOP('',(#83,#84,#85,#86)) ;
#122=EDGE_LOOP('',(#123,#124,#125,#126)) ;
#139=EDGE_LOOP('',(#140,#141,#142,#143)) ;
#151=EDGE_LOOP('',(#152,#153)) ;
#155=EDGE_LOOP('',(#156,#157)) ;
#165=EDGE_LOOP('',(#166,#167)) ;
#169=EDGE_LOOP('',(#170,#171)) ;
#70=FACE_OUTER_BOUND('',#65,.T.) ;
#87=FACE_OUTER_BOUND('',#82,.T.) ;
#127=FACE_OUTER_BOUND('',#122,.T.) ;
#144=FACE_OUTER_BOUND('',#139,.T.) ;
#154=FACE_OUTER_BOUND('',#151,.T.) ;
#168=FACE_OUTER_BOUND('',#165,.T.) ;
#40=LINE('Line',#37,#39) ;
#56=LINE('Line',#53,#55) ;
#106=LINE('Line',#103,#105) ;
#120=LINE('Line',#117,#119) ;
#150=PLANE('',#149) ;
#164=PLANE('',#163) ;
#9=PRODUCT_CATEGORY_RELATIONSHIP(' ',' ',#7,#8) ;
#6=PRODUCT_DEFINITION_FORMATION_WITH_SPECIFIED_SOURCE('',' ',#5,.BOUGHT.) ;
#20=SHAPE_DEFINITION_REPRESENTATION(#11,#19) ;
#42=VERTEX_POINT('',#41) ;
#44=VERTEX_POINT('',#43) ;
#51=VERTEX_POINT('',#50) ;
#58=VERTEX_POINT('',#57) ;
#99=VERTEX_POINT('',#98) ;
#101=VERTEX_POINT('',#100) ;
#108=VERTEX_POINT('',#107) ;
#115=VERTEX_POINT('',#114) ;
#12=(LENGTH_UNIT()NAMED_UNIT(*)SI_UNIT(.MILLI.,.METRE.)) ;
#13=(NAMED_UNIT(*)PLANE_ANGLE_UNIT()SI_UNIT($,.RADIAN.)) ;
#14=(NAMED_UNIT(*)SI_UNIT($,.STERADIAN.)SOLID_ANGLE_UNIT()) ;
#16=(GEOMETRIC_REPRESENTATION_CONTEXT(3)GLOBAL_UNCERTAINTY_ASSIGNED_CONTEXT((#15))GLOBAL_UNIT_ASSIGNED_CONTEXT((#12,#13,#14))REPRESENTATION_CONTEXT(' ',' ')) ;
ENDSEC;
END-ISO-10303-21;
