ISO-10303-21;
HEADER;
FILE_DESCRIPTION(('CATIA V5R24 STEP','CAx-IF Rec.Pracs.--- Model Styling and Organization---1.2---2011-12-15'),'2;1');

FILE_NAME ('D1445994_0_0501160000_0501160000.stp','2018-03-21T10:16:54+00:00',('none'),('Weidmueller'),'CATIA Version 5-6 Release 2014 SP4 HF52','CATIA V5 STEP AP214','none');

FILE_SCHEMA(('AUTOMOTIVE_DESIGN { 1 0 10303 214 1 1 1 1 }'));

ENDSEC;
DATA;
#5=PRODUCT('0501160000_VP_29-K54','','',(#2)) ;
#2=PRODUCT_CONTEXT(' ',#1,'mechanical') ;
#1=APPLICATION_CONTEXT('automotive design') ;
#10=PRODUCT_DEFINITION('',' ',#6,#3) ;
#3=PRODUCT_DEFINITION_CONTEXT('part definition',#1,' ') ;
#11=PRODUCT_DEFINITION_SHAPE(' ',' ',#10) ;
#547=MECHANICAL_DESIGN_GEOMETRIC_PRESENTATION_REPRESENTATION(' ',(#29),#16) ;
#19=SHAPE_REPRESENTATION(' ',(#18),#16) ;
#18=AXIS2_PLACEMENT_3D(' ',#17,$,$) ;
#34=AXIS2_PLACEMENT_3D('Cone Axis2P3D',#31,#32,#33) ;
#38=AXIS2_PLACEMENT_3D('Circle Axis2P3D',#36,#37,$) ;
#54=AXIS2_PLACEMENT_3D('Circle Axis2P3D',#52,#53,$) ;
#74=AXIS2_PLACEMENT_3D('Plane Axis2P3D',#71,#72,#73) ;
#78=AXIS2_PLACEMENT_3D('Circle Axis2P3D',#76,#77,$) ;
#87=AXIS2_PLACEMENT_3D('Circle Axis2P3D',#85,#86,$) ;
#96=AXIS2_PLACEMENT_3D('Circle Axis2P3D',#94,#95,$) ;
#107=AXIS2_PLACEMENT_3D('Cone Axis2P3D',#104,#105,#106) ;
#111=AXIS2_PLACEMENT_3D('Circle Axis2P3D',#109,#110,$) ;
#124=AXIS2_PLACEMENT_3D('Cylinder Axis2P3D',#121,#122,#123) ;
#128=AXIS2_PLACEMENT_3D('Circle Axis2P3D',#126,#127,$) ;
#155=AXIS2_PLACEMENT_3D('Cylinder Axis2P3D',#152,#153,#154) ;
#166=AXIS2_PLACEMENT_3D('Circle Axis2P3D',#164,#165,$) ;
#186=AXIS2_PLACEMENT_3D('Cylinder Axis2P3D',#183,#184,#185) ;
#190=AXIS2_PLACEMENT_3D('Circle Axis2P3D',#188,#189,$) ;
#203=AXIS2_PLACEMENT_3D('Cylinder Axis2P3D',#200,#201,#202) ;
#207=AXIS2_PLACEMENT_3D('Circle Axis2P3D',#205,#206,$) ;
#220=AXIS2_PLACEMENT_3D('Plane Axis2P3D',#217,#218,#219) ;
#224=AXIS2_PLACEMENT_3D('Circle Axis2P3D',#222,#223,$) ;
#233=AXIS2_PLACEMENT_3D('Circle Axis2P3D',#231,#232,$) ;
#248=AXIS2_PLACEMENT_3D('Plane Axis2P3D',#245,#246,#247) ;
#258=AXIS2_PLACEMENT_3D('Cylinder Axis2P3D',#255,#256,#257) ;
#276=AXIS2_PLACEMENT_3D('Circle Axis2P3D',#274,#275,$) ;
#289=AXIS2_PLACEMENT_3D('Cylinder Axis2P3D',#286,#287,#288) ;
#293=AXIS2_PLACEMENT_3D('Circle Axis2P3D',#291,#292,$) ;
#306=AXIS2_PLACEMENT_3D('Torus Axis2P3D',#303,#304,#305) ;
#310=AXIS2_PLACEMENT_3D('Circle Axis2P3D',#308,#309,$) ;
#317=AXIS2_PLACEMENT_3D('Circle Axis2P3D',#315,#316,$) ;
#324=AXIS2_PLACEMENT_3D('Circle Axis2P3D',#322,#323,$) ;
#337=AXIS2_PLACEMENT_3D('Torus Axis2P3D',#334,#335,#336) ;
#341=AXIS2_PLACEMENT_3D('Circle Axis2P3D',#339,#340,$) ;
#354=AXIS2_PLACEMENT_3D('Plane Axis2P3D',#351,#352,#353) ;
#440=AXIS2_PLACEMENT_3D('Plane Axis2P3D',#437,#438,#439) ;
#471=AXIS2_PLACEMENT_3D('Cylinder Axis2P3D',#468,#469,#470) ;
#475=AXIS2_PLACEMENT_3D('Circle Axis2P3D',#473,#474,$) ;
#495=AXIS2_PLACEMENT_3D('Plane Axis2P3D',#492,#493,#494) ;
#519=AXIS2_PLACEMENT_3D('Cylinder Axis2P3D',#516,#517,#518) ;
#523=AXIS2_PLACEMENT_3D('Circle Axis2P3D',#521,#522,$) ;
#536=AXIS2_PLACEMENT_3D('Plane Axis2P3D',#533,#534,#535) ;
#17=CARTESIAN_POINT(' ',(0.,0.,0.)) ;
#31=CARTESIAN_POINT('Axis2P3D Location',(22.,22.,0.)) ;
#36=CARTESIAN_POINT('Axis2P3D Location',(22.,22.,0.)) ;
#40=CARTESIAN_POINT('Vertex',(4.,22.,-2.37075419378E-015)) ;
#42=CARTESIAN_POINT('Vertex',(40.,22.,2.37075419378E-015)) ;
#45=CARTESIAN_POINT('Line Origine',(-353540.390593,22.,353544.390593)) ;
#49=CARTESIAN_POINT('Vertex',(3.5,22.,0.5)) ;
#52=CARTESIAN_POINT('Axis2P3D Location',(22.,22.,0.5)) ;
#56=CARTESIAN_POINT('Vertex',(40.5,22.,0.5)) ;
#59=CARTESIAN_POINT('Line Origine',(353584.390593,22.,353544.390593)) ;
#71=CARTESIAN_POINT('Axis2P3D Location',(22.,22.,0.)) ;
#76=CARTESIAN_POINT('Axis2P3D Location',(22.,22.,-2.17540971752E-031)) ;
#85=CARTESIAN_POINT('Axis2P3D Location',(22.,22.,0.)) ;
#89=CARTESIAN_POINT('Vertex',(5.5,22.,-2.0206672186E-015)) ;
#91=CARTESIAN_POINT('Vertex',(38.5,22.,2.0206672186E-015)) ;
#94=CARTESIAN_POINT('Axis2P3D Location',(22.,22.,0.)) ;
#104=CARTESIAN_POINT('Axis2P3D Location',(22.,22.,0.)) ;
#109=CARTESIAN_POINT('Axis2P3D Location',(22.,22.,0.5)) ;
#121=CARTESIAN_POINT('Axis2P3D Location',(22.,22.,8.)) ;
#126=CARTESIAN_POINT('Axis2P3D Location',(22.,22.,8.)) ;
#130=CARTESIAN_POINT('Vertex',(3.5,22.,8.)) ;
#132=CARTESIAN_POINT('Vertex',(40.5,22.,8.)) ;
#135=CARTESIAN_POINT('Line Origine',(40.5,22.,8.)) ;
#140=CARTESIAN_POINT('Line Origine',(3.5,22.,8.)) ;
#152=CARTESIAN_POINT('Axis2P3D Location',(22.,22.,8.)) ;
#157=CARTESIAN_POINT('Line Origine',(38.5,22.,8.)) ;
#161=CARTESIAN_POINT('Vertex',(38.5,22.,8.)) ;
#164=CARTESIAN_POINT('Axis2P3D Location',(22.,22.,8.)) ;
#168=CARTESIAN_POINT('Vertex',(5.5,22.,8.)) ;
#171=CARTESIAN_POINT('Line Origine',(5.5,22.,8.)) ;
#183=CARTESIAN_POINT('Axis2P3D Location',(22.,22.,8.)) ;
#188=CARTESIAN_POINT('Axis2P3D Location',(22.,22.,8.)) ;
#200=CARTESIAN_POINT('Axis2P3D Location',(22.,22.,8.)) ;
#205=CARTESIAN_POINT('Axis2P3D Location',(22.,22.,8.)) ;
#217=CARTESIAN_POINT('Axis2P3D Location',(22.,22.,8.)) ;
#222=CARTESIAN_POINT('Axis2P3D Location',(22.,22.,8.)) ;
#226=CARTESIAN_POINT('Vertex',(44.,22.,8.)) ;
#228=CARTESIAN_POINT('Vertex',(3.5527136788E-015,22.,8.)) ;
#231=CARTESIAN_POINT('Axis2P3D Location',(22.,22.,8.)) ;
#245=CARTESIAN_POINT('Axis2P3D Location',(22.,22.,8.)) ;
#255=CARTESIAN_POINT('Axis2P3D Location',(22.,22.,0.)) ;
#260=CARTESIAN_POINT('Line Origine',(0.,22.,0.)) ;
#264=CARTESIAN_POINT('Vertex',(-7.06163282017E-030,22.,10.)) ;
#267=CARTESIAN_POINT('Line Origine',(44.,22.,0.)) ;
#271=CARTESIAN_POINT('Vertex',(44.,22.,10.)) ;
#274=CARTESIAN_POINT('Axis2P3D Location',(22.,22.,10.)) ;
#286=CARTESIAN_POINT('Axis2P3D Location',(22.,22.,0.)) ;
#291=CARTESIAN_POINT('Axis2P3D Location',(22.,22.,10.)) ;
#303=CARTESIAN_POINT('Axis2P3D Location',(22.,22.,-13.5)) ;
#308=CARTESIAN_POINT('Axis2P3D Location',(8.5293610546,22.,-13.5)) ;
#312=CARTESIAN_POINT('Vertex',(8.5293610546,22.,11.5)) ;
#315=CARTESIAN_POINT('Axis2P3D Location',(35.4706389454,22.,-13.5)) ;
#319=CARTESIAN_POINT('Vertex',(35.4706389454,22.,11.5)) ;
#322=CARTESIAN_POINT('Axis2P3D Location',(22.,22.,11.5)) ;
#334=CARTESIAN_POINT('Axis2P3D Location',(22.,22.,-13.5)) ;
#339=CARTESIAN_POINT('Axis2P3D Location',(22.,22.,11.5)) ;
#351=CARTESIAN_POINT('Axis2P3D Location',(22.,22.,11.5)) ;
#360=CARTESIAN_POINT('Line Origine',(21.,22.,11.5)) ;
#364=CARTESIAN_POINT('Vertex',(21.,27.,11.5)) ;
#366=CARTESIAN_POINT('Vertex',(21.,17.,11.5)) ;
#370=CARTESIAN_POINT('Control Point',(23.,27.,11.5)) ;
#371=CARTESIAN_POINT('Control Point',(23.,27.0979746381,11.5)) ;
#372=CARTESIAN_POINT('Control Point',(22.9880012087,27.195948484,11.5)) ;
#373=CARTESIAN_POINT('Control Point',(22.9639906571,27.2920014259,11.5)) ;
#374=CARTESIAN_POINT('Control Point',(22.8929610808,27.4761954088,11.5)) ;
#375=CARTESIAN_POINT('Control Point',(22.7795833049,27.6378025333,11.5)) ;
#376=CARTESIAN_POINT('Control Point',(22.7131994297,27.7112590168,11.5)) ;
#377=CARTESIAN_POINT('Control Point',(22.5638525341,27.8403641342,11.5)) ;
#378=CARTESIAN_POINT('Control Point',(22.3877668993,27.9296123007,11.5)) ;
#379=CARTESIAN_POINT('Control Point',(22.2946266674,27.9631915393,11.5)) ;
#380=CARTESIAN_POINT('Control Point',(22.1020965945,28.0068355599,11.5)) ;
#381=CARTESIAN_POINT('Control Point',(21.9047275863,28.0027289572,11.5)) ;
#382=CARTESIAN_POINT('Control Point',(21.8067424035,27.9885313946,11.5)) ;
#383=CARTESIAN_POINT('Control Point',(21.616322227,27.9364469713,11.5)) ;
#384=CARTESIAN_POINT('Control Point',(21.4441012928,27.8399516792,11.5)) ;
#385=CARTESIAN_POINT('Control Point',(21.3643223605,27.7813173191,11.5)) ;
#386=CARTESIAN_POINT('Control Point',(21.2208077659,27.6457564365,11.5)) ;
#387=CARTESIAN_POINT('Control Point',(21.1142497197,27.479571745,11.5)) ;
#388=CARTESIAN_POINT('Control Point',(21.0714471308,27.3902964847,11.5)) ;
#389=CARTESIAN_POINT('Control Point',(21.0270799106,27.2581793809,11.5)) ;
#390=CARTESIAN_POINT('Control Point',(21.0061471842,27.1212592726,11.5)) ;
#391=CARTESIAN_POINT('Control Point',(21.0020360797,27.0807174582,11.5)) ;
#392=CARTESIAN_POINT('Control Point',(21.,27.0403587257,11.5)) ;
#393=CARTESIAN_POINT('Control Point',(21.,27.,11.5)) ;
#394=CARTESIAN_POINT('Vertex',(23.,27.,11.5)) ;
#397=CARTESIAN_POINT('Line Origine',(23.,22.,11.5)) ;
#401=CARTESIAN_POINT('Vertex',(23.,17.,11.5)) ;
#405=CARTESIAN_POINT('Control Point',(21.,17.,11.5)) ;
#406=CARTESIAN_POINT('Control Point',(21.,16.9020253619,11.5)) ;
#407=CARTESIAN_POINT('Control Point',(21.0119987913,16.804051516,11.5)) ;
#408=CARTESIAN_POINT('Control Point',(21.0360093429,16.7079985741,11.5)) ;
#409=CARTESIAN_POINT('Control Point',(21.1070389192,16.5238045912,11.5)) ;
#410=CARTESIAN_POINT('Control Point',(21.2204166951,16.3621974667,11.5)) ;
#411=CARTESIAN_POINT('Control Point',(21.2868005703,16.2887409832,11.5)) ;
#412=CARTESIAN_POINT('Control Point',(21.4361474659,16.1596358658,11.5)) ;
#413=CARTESIAN_POINT('Control Point',(21.6122331007,16.0703876993,11.5)) ;
#414=CARTESIAN_POINT('Control Point',(21.7053733326,16.0368084607,11.5)) ;
#415=CARTESIAN_POINT('Control Point',(21.8979034055,15.9931644401,11.5)) ;
#416=CARTESIAN_POINT('Control Point',(22.0952724137,15.9972710428,11.5)) ;
#417=CARTESIAN_POINT('Control Point',(22.1932575965,16.0114686054,11.5)) ;
#418=CARTESIAN_POINT('Control Point',(22.383677773,16.0635530287,11.5)) ;
#419=CARTESIAN_POINT('Control Point',(22.5558987072,16.1600483208,11.5)) ;
#420=CARTESIAN_POINT('Control Point',(22.6356776395,16.2186826809,11.5)) ;
#421=CARTESIAN_POINT('Control Point',(22.7791922341,16.3542435635,11.5)) ;
#422=CARTESIAN_POINT('Control Point',(22.8857502803,16.520428255,11.5)) ;
#423=CARTESIAN_POINT('Control Point',(22.9285528692,16.6097035153,11.5)) ;
#424=CARTESIAN_POINT('Control Point',(22.9729200894,16.7418206191,11.5)) ;
#425=CARTESIAN_POINT('Control Point',(22.9938528158,16.8787407274,11.5)) ;
#426=CARTESIAN_POINT('Control Point',(22.9979639203,16.9192825418,11.5)) ;
#427=CARTESIAN_POINT('Control Point',(23.,16.9596412743,11.5)) ;
#428=CARTESIAN_POINT('Control Point',(23.,17.,11.5)) ;
#437=CARTESIAN_POINT('Axis2P3D Location',(21.,27.,9.5)) ;
#442=CARTESIAN_POINT('Line Origine',(21.,17.,10.5)) ;
#446=CARTESIAN_POINT('Vertex',(21.,17.,9.5)) ;
#449=CARTESIAN_POINT('Line Origine',(21.,22.,9.5)) ;
#453=CARTESIAN_POINT('Vertex',(21.,27.,9.5)) ;
#456=CARTESIAN_POINT('Line Origine',(21.,27.,10.5)) ;
#468=CARTESIAN_POINT('Axis2P3D Location',(22.,27.,9.5)) ;
#473=CARTESIAN_POINT('Axis2P3D Location',(22.,27.,9.5)) ;
#477=CARTESIAN_POINT('Vertex',(23.,27.,9.5)) ;
#480=CARTESIAN_POINT('Line Origine',(23.,27.,9.5)) ;
#492=CARTESIAN_POINT('Axis2P3D Location',(23.,27.,9.5)) ;
#497=CARTESIAN_POINT('Line Origine',(23.,22.,9.5)) ;
#501=CARTESIAN_POINT('Vertex',(23.,17.,9.5)) ;
#504=CARTESIAN_POINT('Line Origine',(23.,17.,10.5)) ;
#516=CARTESIAN_POINT('Axis2P3D Location',(22.,17.,9.5)) ;
#521=CARTESIAN_POINT('Axis2P3D Location',(22.,17.,9.5)) ;
#533=CARTESIAN_POINT('Axis2P3D Location',(22.,27.,9.5)) ;
#32=DIRECTION('Axis2P3D Direction',(-1.22464679915E-016,0.,1.)) ;
#33=DIRECTION('Axis2P3D XDirection',(1.,0.,1.31708566321E-016)) ;
#37=DIRECTION('Axis2P3D Direction',(-1.31708566321E-016,0.,1.)) ;
#46=DIRECTION('Vector Direction',(-0.707106781186,8.65951915671E-017,0.707106781187)) ;
#53=DIRECTION('Axis2P3D Direction',(-1.31708566321E-016,0.,1.)) ;
#60=DIRECTION('Vector Direction',(0.707106781186,0.,0.707106781187)) ;
#72=DIRECTION('Axis2P3D Direction',(1.22464679915E-016,0.,-1.)) ;
#73=DIRECTION('Axis2P3D XDirection',(-1.,0.,-1.22464679915E-016)) ;
#77=DIRECTION('Axis2P3D Direction',(1.22464679915E-016,0.,-1.)) ;
#86=DIRECTION('Axis2P3D Direction',(1.22464679915E-016,0.,-1.)) ;
#95=DIRECTION('Axis2P3D Direction',(1.22464679915E-016,0.,-1.)) ;
#105=DIRECTION('Axis2P3D Direction',(-1.22464679915E-016,0.,1.)) ;
#106=DIRECTION('Axis2P3D XDirection',(-1.,1.22464890314E-016,-1.31708566321E-016)) ;
#110=DIRECTION('Axis2P3D Direction',(-1.31708566321E-016,1.13205153479E-033,1.)) ;
#122=DIRECTION('Axis2P3D Direction',(1.22464679915E-016,0.,-1.)) ;
#123=DIRECTION('Axis2P3D XDirection',(-1.,0.,-1.22464679915E-016)) ;
#127=DIRECTION('Axis2P3D Direction',(1.22464679915E-016,0.,-1.)) ;
#136=DIRECTION('Vector Direction',(1.22464882679E-016,0.,-1.)) ;
#141=DIRECTION('Vector Direction',(1.22464527408E-016,0.,-1.)) ;
#153=DIRECTION('Axis2P3D Direction',(1.22464679915E-016,0.,-1.)) ;
#154=DIRECTION('Axis2P3D XDirection',(-1.,0.,-1.22464679915E-016)) ;
#158=DIRECTION('Vector Direction',(1.22464882679E-016,0.,-1.)) ;
#165=DIRECTION('Axis2P3D Direction',(1.22464679915E-016,0.,-1.)) ;
#172=DIRECTION('Vector Direction',(1.22464527408E-016,0.,-1.)) ;
#184=DIRECTION('Axis2P3D Direction',(1.22464679915E-016,0.,-1.)) ;
#185=DIRECTION('Axis2P3D XDirection',(1.,1.22464679915E-016,1.22464679915E-016)) ;
#189=DIRECTION('Axis2P3D Direction',(1.22464679915E-016,0.,-1.)) ;
#201=DIRECTION('Axis2P3D Direction',(1.22464679915E-016,0.,-1.)) ;
#202=DIRECTION('Axis2P3D XDirection',(1.,1.22464679915E-016,1.22464679915E-016)) ;
#206=DIRECTION('Axis2P3D Direction',(1.22464679915E-016,0.,-1.)) ;
#218=DIRECTION('Axis2P3D Direction',(1.22464679915E-016,0.,-1.)) ;
#219=DIRECTION('Axis2P3D XDirection',(-1.,0.,-1.22464679915E-016)) ;
#223=DIRECTION('Axis2P3D Direction',(1.22464679915E-016,0.,-1.)) ;
#232=DIRECTION('Axis2P3D Direction',(1.22464679915E-016,0.,-1.)) ;
#246=DIRECTION('Axis2P3D Direction',(1.22464679915E-016,0.,-1.)) ;
#247=DIRECTION('Axis2P3D XDirection',(-1.,0.,-1.22464679915E-016)) ;
#256=DIRECTION('Axis2P3D Direction',(-1.22464679915E-016,0.,1.)) ;
#257=DIRECTION('Axis2P3D XDirection',(-1.,5.66553889765E-016,-1.22464679915E-016)) ;
#261=DIRECTION('Vector Direction',(-1.22464527408E-016,0.,1.)) ;
#268=DIRECTION('Vector Direction',(-1.22464882679E-016,0.,1.)) ;
#275=DIRECTION('Axis2P3D Direction',(-1.22464679915E-016,0.,1.)) ;
#287=DIRECTION('Axis2P3D Direction',(-1.22464679915E-016,0.,1.)) ;
#288=DIRECTION('Axis2P3D XDirection',(1.,0.,1.22464679915E-016)) ;
#292=DIRECTION('Axis2P3D Direction',(-1.22464679915E-016,0.,1.)) ;
#304=DIRECTION('Axis2P3D Direction',(-1.22464679915E-016,-0.,1.)) ;
#305=DIRECTION('Axis2P3D XDirection',(-1.,-2.7704611435E-016,-1.38523057175E-016)) ;
#309=DIRECTION('Axis2P3D Direction',(-2.7704611435E-016,1.,-3.39283637156E-032)) ;
#316=DIRECTION('Axis2P3D Direction',(1.54581434435E-016,-1.,1.89307658889E-032)) ;
#323=DIRECTION('Axis2P3D Direction',(-1.38523057175E-016,-4.44891102265E-033,1.)) ;
#335=DIRECTION('Axis2P3D Direction',(-1.22464679915E-016,-0.,1.)) ;
#336=DIRECTION('Axis2P3D XDirection',(1.,0.,1.38523057175E-016)) ;
#340=DIRECTION('Axis2P3D Direction',(-1.38523057175E-016,-0.,1.)) ;
#352=DIRECTION('Axis2P3D Direction',(1.22464679915E-016,0.,-1.)) ;
#353=DIRECTION('Axis2P3D XDirection',(-1.,0.,-1.22464679915E-016)) ;
#361=DIRECTION('Vector Direction',(0.,-1.,0.)) ;
#398=DIRECTION('Vector Direction',(0.,1.,0.)) ;
#438=DIRECTION('Axis2P3D Direction',(-1.,-1.30104260698E-016,-1.22464679915E-016)) ;
#439=DIRECTION('Axis2P3D XDirection',(-1.30104260698E-016,1.,-1.5933176642E-032)) ;
#443=DIRECTION('Vector Direction',(0.,0.,1.)) ;
#450=DIRECTION('Vector Direction',(0.,-1.,0.)) ;
#457=DIRECTION('Vector Direction',(0.,0.,1.)) ;
#469=DIRECTION('Axis2P3D Direction',(-1.22464679915E-016,0.,1.)) ;
#470=DIRECTION('Axis2P3D XDirection',(1.,0.,1.22464679915E-016)) ;
#474=DIRECTION('Axis2P3D Direction',(-1.22464679915E-016,0.,1.)) ;
#481=DIRECTION('Vector Direction',(-1.22464527408E-016,0.,1.)) ;
#493=DIRECTION('Axis2P3D Direction',(1.,1.30104260698E-016,1.22464679915E-016)) ;
#494=DIRECTION('Axis2P3D XDirection',(1.30104260698E-016,-1.,1.5933176642E-032)) ;
#498=DIRECTION('Vector Direction',(0.,1.,0.)) ;
#505=DIRECTION('Vector Direction',(0.,0.,1.)) ;
#517=DIRECTION('Axis2P3D Direction',(-1.22464679915E-016,0.,1.)) ;
#518=DIRECTION('Axis2P3D XDirection',(-1.,1.22464679915E-016,-1.22464679915E-016)) ;
#522=DIRECTION('Axis2P3D Direction',(-1.22464679915E-016,0.,1.)) ;
#534=DIRECTION('Axis2P3D Direction',(-1.22464679915E-016,0.,1.)) ;
#535=DIRECTION('Axis2P3D XDirection',(1.,0.,1.22464679915E-016)) ;
#8=PRODUCT_RELATED_PRODUCT_CATEGORY('part',$,(#5)) ;
#7=PRODUCT_CATEGORY('part','specification') ;
#29=STYLED_ITEM(' ',(#28),#21) ;
#28=PRESENTATION_STYLE_ASSIGNMENT((#27)) ;
#27=SURFACE_STYLE_USAGE(.BOTH.,#26) ;
#26=SURFACE_SIDE_STYLE(' ',(#25)) ;
#25=SURFACE_STYLE_FILL_AREA(#24) ;
#24=FILL_AREA_STYLE(' ',(#23)) ;
#23=FILL_AREA_STYLE_COLOUR(' ',#22) ;
#47=VECTOR('Line Direction',#46,1.) ;
#61=VECTOR('Line Direction',#60,1.) ;
#137=VECTOR('Line Direction',#136,1.) ;
#142=VECTOR('Line Direction',#141,1.) ;
#159=VECTOR('Line Direction',#158,1.) ;
#173=VECTOR('Line Direction',#172,1.) ;
#262=VECTOR('Line Direction',#261,1.) ;
#269=VECTOR('Line Direction',#268,1.) ;
#362=VECTOR('Line Direction',#361,1.) ;
#399=VECTOR('Line Direction',#398,1.) ;
#444=VECTOR('Line Direction',#443,1.) ;
#451=VECTOR('Line Direction',#450,1.) ;
#458=VECTOR('Line Direction',#457,1.) ;
#482=VECTOR('Line Direction',#481,1.) ;
#499=VECTOR('Line Direction',#498,1.) ;
#506=VECTOR('Line Direction',#505,1.) ;
#15=UNCERTAINTY_MEASURE_WITH_UNIT(LENGTH_MEASURE(0.005),#12,'distance_accuracy_value','CONFUSED CURVE UNCERTAINTY') ;
#546=SHAPE_REPRESENTATION_RELATIONSHIP(' ',' ',#19,#545) ;
#65=ORIENTED_EDGE('',*,*,#44,.F.) ;
#66=ORIENTED_EDGE('',*,*,#51,.T.) ;
#67=ORIENTED_EDGE('',*,*,#58,.F.) ;
#68=ORIENTED_EDGE('',*,*,#63,.F.) ;
#82=ORIENTED_EDGE('',*,*,#80,.T.) ;
#83=ORIENTED_EDGE('',*,*,#44,.T.) ;
#100=ORIENTED_EDGE('',*,*,#93,.F.) ;
#101=ORIENTED_EDGE('',*,*,#98,.F.) ;
#115=ORIENTED_EDGE('',*,*,#51,.F.) ;
#116=ORIENTED_EDGE('',*,*,#80,.F.) ;
#117=ORIENTED_EDGE('',*,*,#63,.T.) ;
#118=ORIENTED_EDGE('',*,*,#113,.F.) ;
#146=ORIENTED_EDGE('',*,*,#134,.T.) ;
#147=ORIENTED_EDGE('',*,*,#139,.T.) ;
#148=ORIENTED_EDGE('',*,*,#58,.T.) ;
#149=ORIENTED_EDGE('',*,*,#144,.F.) ;
#177=ORIENTED_EDGE('',*,*,#163,.F.) ;
#178=ORIENTED_EDGE('',*,*,#170,.F.) ;
#179=ORIENTED_EDGE('',*,*,#175,.T.) ;
#180=ORIENTED_EDGE('',*,*,#93,.T.) ;
#194=ORIENTED_EDGE('',*,*,#192,.F.) ;
#195=ORIENTED_EDGE('',*,*,#163,.T.) ;
#196=ORIENTED_EDGE('',*,*,#98,.T.) ;
#197=ORIENTED_EDGE('',*,*,#175,.F.) ;
#211=ORIENTED_EDGE('',*,*,#139,.F.) ;
#212=ORIENTED_EDGE('',*,*,#209,.T.) ;
#213=ORIENTED_EDGE('',*,*,#144,.T.) ;
#214=ORIENTED_EDGE('',*,*,#113,.T.) ;
#237=ORIENTED_EDGE('',*,*,#230,.T.) ;
#238=ORIENTED_EDGE('',*,*,#235,.T.) ;
#241=ORIENTED_EDGE('',*,*,#134,.F.) ;
#242=ORIENTED_EDGE('',*,*,#209,.F.) ;
#251=ORIENTED_EDGE('',*,*,#170,.T.) ;
#252=ORIENTED_EDGE('',*,*,#192,.T.) ;
#280=ORIENTED_EDGE('',*,*,#266,.F.) ;
#281=ORIENTED_EDGE('',*,*,#230,.F.) ;
#282=ORIENTED_EDGE('',*,*,#273,.T.) ;
#283=ORIENTED_EDGE('',*,*,#278,.F.) ;
#297=ORIENTED_EDGE('',*,*,#235,.F.) ;
#298=ORIENTED_EDGE('',*,*,#266,.T.) ;
#299=ORIENTED_EDGE('',*,*,#295,.F.) ;
#300=ORIENTED_EDGE('',*,*,#273,.F.) ;
#328=ORIENTED_EDGE('',*,*,#314,.F.) ;
#329=ORIENTED_EDGE('',*,*,#278,.T.) ;
#330=ORIENTED_EDGE('',*,*,#321,.T.) ;
#331=ORIENTED_EDGE('',*,*,#326,.F.) ;
#345=ORIENTED_EDGE('',*,*,#295,.T.) ;
#346=ORIENTED_EDGE('',*,*,#314,.T.) ;
#347=ORIENTED_EDGE('',*,*,#343,.F.) ;
#348=ORIENTED_EDGE('',*,*,#321,.F.) ;
#357=ORIENTED_EDGE('',*,*,#343,.T.) ;
#358=ORIENTED_EDGE('',*,*,#326,.T.) ;
#431=ORIENTED_EDGE('',*,*,#368,.F.) ;
#432=ORIENTED_EDGE('',*,*,#396,.F.) ;
#433=ORIENTED_EDGE('',*,*,#403,.F.) ;
#434=ORIENTED_EDGE('',*,*,#429,.F.) ;
#462=ORIENTED_EDGE('',*,*,#368,.T.) ;
#463=ORIENTED_EDGE('',*,*,#448,.F.) ;
#464=ORIENTED_EDGE('',*,*,#455,.F.) ;
#465=ORIENTED_EDGE('',*,*,#460,.T.) ;
#486=ORIENTED_EDGE('',*,*,#396,.T.) ;
#487=ORIENTED_EDGE('',*,*,#460,.F.) ;
#488=ORIENTED_EDGE('',*,*,#479,.F.) ;
#489=ORIENTED_EDGE('',*,*,#484,.T.) ;
#510=ORIENTED_EDGE('',*,*,#403,.T.) ;
#511=ORIENTED_EDGE('',*,*,#484,.F.) ;
#512=ORIENTED_EDGE('',*,*,#503,.F.) ;
#513=ORIENTED_EDGE('',*,*,#508,.T.) ;
#527=ORIENTED_EDGE('',*,*,#429,.T.) ;
#528=ORIENTED_EDGE('',*,*,#508,.F.) ;
#529=ORIENTED_EDGE('',*,*,#525,.F.) ;
#530=ORIENTED_EDGE('',*,*,#448,.T.) ;
#539=ORIENTED_EDGE('',*,*,#479,.T.) ;
#540=ORIENTED_EDGE('',*,*,#455,.T.) ;
#541=ORIENTED_EDGE('',*,*,#525,.T.) ;
#542=ORIENTED_EDGE('',*,*,#503,.T.) ;
#102=FACE_BOUND('',#99,.T.) ;
#243=FACE_BOUND('',#240,.T.) ;
#435=FACE_BOUND('',#430,.T.) ;
#30=CLOSED_SHELL('Closed Shell',(#70,#103,#120,#151,#182,#199,#216,#244,#254,#285,#302,#333,#350,#436,#467,#491,#515,#532,#544)) ;
#545=ADVANCED_BREP_SHAPE_REPRESENTATION('NONE',(#21),#16) ;
#70=ADVANCED_FACE('Fase1',(#69),#35,.T.) ;
#103=ADVANCED_FACE('Fase1',(#84,#102),#75,.T.) ;
#120=ADVANCED_FACE('Fase1',(#119),#108,.T.) ;
#151=ADVANCED_FACE('Fase1',(#150),#125,.T.) ;
#182=ADVANCED_FACE('Fase1',(#181),#156,.F.) ;
#199=ADVANCED_FACE('Fase1',(#198),#187,.F.) ;
#216=ADVANCED_FACE('Fase1',(#215),#204,.T.) ;
#244=ADVANCED_FACE('Fase1',(#239,#243),#221,.T.) ;
#254=ADVANCED_FACE('Fase1',(#253),#249,.T.) ;
#285=ADVANCED_FACE('Fase1',(#284),#259,.T.) ;
#302=ADVANCED_FACE('Fase1',(#301),#290,.T.) ;
#333=ADVANCED_FACE('Fase1',(#332),#307,.T.) ;
#350=ADVANCED_FACE('Fase1',(#349),#338,.T.) ;
#436=ADVANCED_FACE('Fase1',(#359,#435),#355,.F.) ;
#467=ADVANCED_FACE('Fase1',(#466),#441,.F.) ;
#491=ADVANCED_FACE('Fase1',(#490),#472,.F.) ;
#515=ADVANCED_FACE('Fase1',(#514),#496,.F.) ;
#532=ADVANCED_FACE('Fase1',(#531),#520,.F.) ;
#544=ADVANCED_FACE('Fase1',(#543),#537,.T.) ;
#4=APPLICATION_PROTOCOL_DEFINITION('international standard','automotive_design',2001,#1) ;
#369=B_SPLINE_CURVE_WITH_KNOTS('',5,(#370,#371,#372,#373,#374,#375,#376,#377,#378,#379,#380,#381,#382,#383,#384,#385,#386,#387,#388,#389,#390,#391,#392,#393),.UNSPECIFIED.,.F.,.U.,(6,3,3,3,3,3,3,6),(0.,0.694484285523,1.38896857975,2.08345291556,2.77793726601,3.47242162985,4.16691597493,4.45299512049),.UNSPECIFIED.) ;
#404=B_SPLINE_CURVE_WITH_KNOTS('',5,(#405,#406,#407,#408,#409,#410,#411,#412,#413,#414,#415,#416,#417,#418,#419,#420,#421,#422,#423,#424,#425,#426,#427,#428),.UNSPECIFIED.,.F.,.U.,(6,3,3,3,3,3,3,6),(0.,0.694484285487,1.38896857969,2.08345291549,2.77793726596,3.4724216298,4.16691597489,4.45299512046),.UNSPECIFIED.) ;
#21=MANIFOLD_SOLID_BREP('Fase1',#30) ;
#39=CIRCLE('generated circle',#38,18.) ;
#55=CIRCLE('generated circle',#54,18.5) ;
#79=CIRCLE('generated circle',#78,18.) ;
#88=CIRCLE('generated circle',#87,16.5) ;
#97=CIRCLE('generated circle',#96,16.5) ;
#112=CIRCLE('generated circle',#111,18.5) ;
#129=CIRCLE('generated circle',#128,18.5) ;
#167=CIRCLE('generated circle',#166,16.5) ;
#191=CIRCLE('generated circle',#190,16.5) ;
#208=CIRCLE('generated circle',#207,18.5) ;
#225=CIRCLE('generated circle',#224,22.) ;
#234=CIRCLE('generated circle',#233,22.) ;
#277=CIRCLE('generated circle',#276,22.) ;
#294=CIRCLE('generated circle',#293,22.) ;
#311=CIRCLE('generated circle',#310,25.) ;
#318=CIRCLE('generated circle',#317,25.) ;
#325=CIRCLE('generated circle',#324,13.4706389454) ;
#342=CIRCLE('generated circle',#341,13.4706389454) ;
#476=CIRCLE('generated circle',#475,1.) ;
#524=CIRCLE('generated circle',#523,1.) ;
#22=COLOUR_RGB('Colour',0.823529411765,0.843137254902,0.862745098039) ;
#35=CONICAL_SURFACE('Cone',#34,18.,0.785398163397) ;
#108=CONICAL_SURFACE('Cone',#107,18.,0.785398163397) ;
#125=CYLINDRICAL_SURFACE('generated cylinder',#124,18.5) ;
#156=CYLINDRICAL_SURFACE('generated cylinder',#155,16.5) ;
#187=CYLINDRICAL_SURFACE('generated cylinder',#186,16.5) ;
#204=CYLINDRICAL_SURFACE('generated cylinder',#203,18.5) ;
#259=CYLINDRICAL_SURFACE('generated cylinder',#258,22.) ;
#290=CYLINDRICAL_SURFACE('generated cylinder',#289,22.) ;
#472=CYLINDRICAL_SURFACE('generated cylinder',#471,1.) ;
#520=CYLINDRICAL_SURFACE('generated cylinder',#519,1.) ;
#307=DEGENERATE_TOROIDAL_SURFACE('homeo Torus',#306,13.4706389454,25.,.T.) ;
#338=DEGENERATE_TOROIDAL_SURFACE('homeo Torus',#337,13.4706389454,25.,.T.) ;
#44=EDGE_CURVE('',#41,#43,#39,.F.) ;
#51=EDGE_CURVE('',#41,#50,#48,.T.) ;
#58=EDGE_CURVE('',#57,#50,#55,.T.) ;
#63=EDGE_CURVE('',#43,#57,#62,.T.) ;
#80=EDGE_CURVE('',#43,#41,#79,.T.) ;
#93=EDGE_CURVE('',#90,#92,#88,.T.) ;
#98=EDGE_CURVE('',#92,#90,#97,.T.) ;
#113=EDGE_CURVE('',#50,#57,#112,.T.) ;
#134=EDGE_CURVE('',#131,#133,#129,.T.) ;
#139=EDGE_CURVE('',#133,#57,#138,.T.) ;
#144=EDGE_CURVE('',#131,#50,#143,.T.) ;
#163=EDGE_CURVE('',#162,#92,#160,.T.) ;
#170=EDGE_CURVE('',#169,#162,#167,.T.) ;
#175=EDGE_CURVE('',#169,#90,#174,.T.) ;
#192=EDGE_CURVE('',#162,#169,#191,.T.) ;
#209=EDGE_CURVE('',#133,#131,#208,.T.) ;
#230=EDGE_CURVE('',#227,#229,#225,.T.) ;
#235=EDGE_CURVE('',#229,#227,#234,.T.) ;
#266=EDGE_CURVE('',#229,#265,#263,.T.) ;
#273=EDGE_CURVE('',#227,#272,#270,.T.) ;
#278=EDGE_CURVE('',#265,#272,#277,.T.) ;
#295=EDGE_CURVE('',#272,#265,#294,.T.) ;
#314=EDGE_CURVE('',#265,#313,#311,.T.) ;
#321=EDGE_CURVE('',#272,#320,#318,.T.) ;
#326=EDGE_CURVE('',#313,#320,#325,.T.) ;
#343=EDGE_CURVE('',#320,#313,#342,.T.) ;
#368=EDGE_CURVE('',#365,#367,#363,.T.) ;
#396=EDGE_CURVE('',#395,#365,#369,.T.) ;
#403=EDGE_CURVE('',#402,#395,#400,.T.) ;
#429=EDGE_CURVE('',#367,#402,#404,.T.) ;
#448=EDGE_CURVE('',#447,#367,#445,.T.) ;
#455=EDGE_CURVE('',#454,#447,#452,.T.) ;
#460=EDGE_CURVE('',#454,#365,#459,.T.) ;
#479=EDGE_CURVE('',#478,#454,#476,.T.) ;
#484=EDGE_CURVE('',#478,#395,#483,.T.) ;
#503=EDGE_CURVE('',#502,#478,#500,.T.) ;
#508=EDGE_CURVE('',#502,#402,#507,.T.) ;
#525=EDGE_CURVE('',#447,#502,#524,.T.) ;
#64=EDGE_LOOP('',(#65,#66,#67,#68)) ;
#81=EDGE_LOOP('',(#82,#83)) ;
#99=EDGE_LOOP('',(#100,#101)) ;
#114=EDGE_LOOP('',(#115,#116,#117,#118)) ;
#145=EDGE_LOOP('',(#146,#147,#148,#149)) ;
#176=EDGE_LOOP('',(#177,#178,#179,#180)) ;
#193=EDGE_LOOP('',(#194,#195,#196,#197)) ;
#210=EDGE_LOOP('',(#211,#212,#213,#214)) ;
#236=EDGE_LOOP('',(#237,#238)) ;
#240=EDGE_LOOP('',(#241,#242)) ;
#250=EDGE_LOOP('',(#251,#252)) ;
#279=EDGE_LOOP('',(#280,#281,#282,#283)) ;
#296=EDGE_LOOP('',(#297,#298,#299,#300)) ;
#327=EDGE_LOOP('',(#328,#329,#330,#331)) ;
#344=EDGE_LOOP('',(#345,#346,#347,#348)) ;
#356=EDGE_LOOP('',(#357,#358)) ;
#430=EDGE_LOOP('',(#431,#432,#433,#434)) ;
#461=EDGE_LOOP('',(#462,#463,#464,#465)) ;
#485=EDGE_LOOP('',(#486,#487,#488,#489)) ;
#509=EDGE_LOOP('',(#510,#511,#512,#513)) ;
#526=EDGE_LOOP('',(#527,#528,#529,#530)) ;
#538=EDGE_LOOP('',(#539,#540,#541,#542)) ;
#69=FACE_OUTER_BOUND('',#64,.T.) ;
#84=FACE_OUTER_BOUND('',#81,.T.) ;
#119=FACE_OUTER_BOUND('',#114,.T.) ;
#150=FACE_OUTER_BOUND('',#145,.T.) ;
#181=FACE_OUTER_BOUND('',#176,.T.) ;
#198=FACE_OUTER_BOUND('',#193,.T.) ;
#215=FACE_OUTER_BOUND('',#210,.T.) ;
#239=FACE_OUTER_BOUND('',#236,.T.) ;
#253=FACE_OUTER_BOUND('',#250,.T.) ;
#284=FACE_OUTER_BOUND('',#279,.T.) ;
#301=FACE_OUTER_BOUND('',#296,.T.) ;
#332=FACE_OUTER_BOUND('',#327,.T.) ;
#349=FACE_OUTER_BOUND('',#344,.T.) ;
#359=FACE_OUTER_BOUND('',#356,.T.) ;
#466=FACE_OUTER_BOUND('',#461,.T.) ;
#490=FACE_OUTER_BOUND('',#485,.T.) ;
#514=FACE_OUTER_BOUND('',#509,.T.) ;
#531=FACE_OUTER_BOUND('',#526,.T.) ;
#543=FACE_OUTER_BOUND('',#538,.T.) ;
#48=LINE('Line',#45,#47) ;
#62=LINE('Line',#59,#61) ;
#138=LINE('Line',#135,#137) ;
#143=LINE('Line',#140,#142) ;
#160=LINE('Line',#157,#159) ;
#174=LINE('Line',#171,#173) ;
#263=LINE('Line',#260,#262) ;
#270=LINE('Line',#267,#269) ;
#363=LINE('Line',#360,#362) ;
#400=LINE('Line',#397,#399) ;
#445=LINE('Line',#442,#444) ;
#452=LINE('Line',#449,#451) ;
#459=LINE('Line',#456,#458) ;
#483=LINE('Line',#480,#482) ;
#500=LINE('Line',#497,#499) ;
#507=LINE('Line',#504,#506) ;
#75=PLANE('',#74) ;
#221=PLANE('',#220) ;
#249=PLANE('',#248) ;
#355=PLANE('',#354) ;
#441=PLANE('',#440) ;
#496=PLANE('',#495) ;
#537=PLANE('',#536) ;
#9=PRODUCT_CATEGORY_RELATIONSHIP(' ',' ',#7,#8) ;
#6=PRODUCT_DEFINITION_FORMATION_WITH_SPECIFIED_SOURCE('',' ',#5,.NOT_KNOWN.) ;
#20=SHAPE_DEFINITION_REPRESENTATION(#11,#19) ;
#41=VERTEX_POINT('',#40) ;
#43=VERTEX_POINT('',#42) ;
#50=VERTEX_POINT('',#49) ;
#57=VERTEX_POINT('',#56) ;
#90=VERTEX_POINT('',#89) ;
#92=VERTEX_POINT('',#91) ;
#131=VERTEX_POINT('',#130) ;
#133=VERTEX_POINT('',#132) ;
#162=VERTEX_POINT('',#161) ;
#169=VERTEX_POINT('',#168) ;
#227=VERTEX_POINT('',#226) ;
#229=VERTEX_POINT('',#228) ;
#265=VERTEX_POINT('',#264) ;
#272=VERTEX_POINT('',#271) ;
#313=VERTEX_POINT('',#312) ;
#320=VERTEX_POINT('',#319) ;
#365=VERTEX_POINT('',#364) ;
#367=VERTEX_POINT('',#366) ;
#395=VERTEX_POINT('',#394) ;
#402=VERTEX_POINT('',#401) ;
#447=VERTEX_POINT('',#446) ;
#454=VERTEX_POINT('',#453) ;
#478=VERTEX_POINT('',#477) ;
#502=VERTEX_POINT('',#501) ;
#12=(LENGTH_UNIT()NAMED_UNIT(*)SI_UNIT(.MILLI.,.METRE.)) ;
#13=(NAMED_UNIT(*)PLANE_ANGLE_UNIT()SI_UNIT($,.RADIAN.)) ;
#14=(NAMED_UNIT(*)SI_UNIT($,.STERADIAN.)SOLID_ANGLE_UNIT()) ;
#16=(GEOMETRIC_REPRESENTATION_CONTEXT(3)GLOBAL_UNCERTAINTY_ASSIGNED_CONTEXT((#15))GLOBAL_UNIT_ASSIGNED_CONTEXT((#12,#13,#14))REPRESENTATION_CONTEXT(' ',' ')) ;
ENDSEC;
END-ISO-10303-21;
