ISO-10303-21;
HEADER;
FILE_DESCRIPTION(('CATIA V5R24 STEP','CAx-IF Rec.Pracs.--- Model Styling and Organization---1.2---2011-12-15'),'2;1');

FILE_NAME ('D1455787_0_1772480000_1772480000.stp','2018-07-04T06:43:07+00:00',('none'),('Weidmueller'),'CATIA Version 5-6 Release 2014 SP4 HF52','CATIA V5 STEP AP214','none');

FILE_SCHEMA(('AUTOMOTIVE_DESIGN { 1 0 10303 214 1 1 1 1 }'));

ENDSEC;
DATA;
#5=PRODUCT('1772480000_SKMU_M32_-_K_GR','','',(#2)) ;
#2=PRODUCT_CONTEXT(' ',#1,'mechanical') ;
#1=APPLICATION_CONTEXT('automotive design') ;
#10=PRODUCT_DEFINITION('',' ',#6,#3) ;
#3=PRODUCT_DEFINITION_CONTEXT('part definition',#1,' ') ;
#11=PRODUCT_DEFINITION_SHAPE(' ',' ',#10) ;
#581=MECHANICAL_DESIGN_GEOMETRIC_PRESENTATION_REPRESENTATION(' ',(#29),#16) ;
#19=SHAPE_REPRESENTATION(' ',(#18),#16) ;
#18=AXIS2_PLACEMENT_3D(' ',#17,$,$) ;
#34=AXIS2_PLACEMENT_3D('Plane Axis2P3D',#31,#32,#33) ;
#38=AXIS2_PLACEMENT_3D('Circle Axis2P3D',#36,#37,$) ;
#58=AXIS2_PLACEMENT_3D('Plane Axis2P3D',#55,#56,#57) ;
#89=AXIS2_PLACEMENT_3D('Cylinder Axis2P3D',#86,#87,#88) ;
#93=AXIS2_PLACEMENT_3D('Circle Axis2P3D',#91,#92,$) ;
#109=AXIS2_PLACEMENT_3D('Circle Axis2P3D',#107,#108,$) ;
#123=AXIS2_PLACEMENT_3D('Circle Axis2P3D',#121,#122,$) ;
#137=AXIS2_PLACEMENT_3D('Circle Axis2P3D',#135,#136,$) ;
#151=AXIS2_PLACEMENT_3D('Circle Axis2P3D',#149,#150,$) ;
#156=AXIS2_PLACEMENT_3D('Circle Axis2P3D',#154,#155,$) ;
#170=AXIS2_PLACEMENT_3D('Circle Axis2P3D',#168,#169,$) ;
#202=AXIS2_PLACEMENT_3D('Plane Axis2P3D',#199,#200,#201) ;
#224=AXIS2_PLACEMENT_3D('Plane Axis2P3D',#221,#222,#223) ;
#234=AXIS2_PLACEMENT_3D('Plane Axis2P3D',#231,#232,#233) ;
#256=AXIS2_PLACEMENT_3D('Cylinder Axis2P3D',#253,#254,#255) ;
#269=AXIS2_PLACEMENT_3D('Circle Axis2P3D',#267,#268,$) ;
#283=AXIS2_PLACEMENT_3D('Circle Axis2P3D',#281,#282,$) ;
#296=AXIS2_PLACEMENT_3D('Cylinder Axis2P3D',#293,#294,#295) ;
#300=AXIS2_PLACEMENT_3D('Circle Axis2P3D',#298,#299,$) ;
#305=AXIS2_PLACEMENT_3D('Circle Axis2P3D',#303,#304,$) ;
#318=AXIS2_PLACEMENT_3D('Plane Axis2P3D',#315,#316,#317) ;
#358=AXIS2_PLACEMENT_3D('Plane Axis2P3D',#355,#356,#357) ;
#362=AXIS2_PLACEMENT_3D('Circle Axis2P3D',#360,#361,$) ;
#373=AXIS2_PLACEMENT_3D('Plane Axis2P3D',#370,#371,#372) ;
#377=AXIS2_PLACEMENT_3D('Circle Axis2P3D',#375,#376,$) ;
#397=AXIS2_PLACEMENT_3D('Plane Axis2P3D',#394,#395,#396) ;
#428=AXIS2_PLACEMENT_3D('Plane Axis2P3D',#425,#426,#427) ;
#438=AXIS2_PLACEMENT_3D('Plane Axis2P3D',#435,#436,#437) ;
#442=AXIS2_PLACEMENT_3D('Circle Axis2P3D',#440,#441,$) ;
#457=AXIS2_PLACEMENT_3D('Plane Axis2P3D',#454,#455,#456) ;
#461=AXIS2_PLACEMENT_3D('Circle Axis2P3D',#459,#460,$) ;
#466=AXIS2_PLACEMENT_3D('Circle Axis2P3D',#464,#465,$) ;
#471=AXIS2_PLACEMENT_3D('Circle Axis2P3D',#469,#470,$) ;
#485=AXIS2_PLACEMENT_3D('Circle Axis2P3D',#483,#484,$) ;
#512=AXIS2_PLACEMENT_3D('Cylinder Axis2P3D',#509,#510,#511) ;
#523=AXIS2_PLACEMENT_3D('Circle Axis2P3D',#521,#522,$) ;
#555=AXIS2_PLACEMENT_3D('Plane Axis2P3D',#552,#553,#554) ;
#572=AXIS2_PLACEMENT_3D('Plane Axis2P3D',#569,#570,#571) ;
#17=CARTESIAN_POINT(' ',(0.,0.,0.)) ;
#31=CARTESIAN_POINT('Axis2P3D Location',(23.,23.,2.)) ;
#36=CARTESIAN_POINT('Axis2P3D Location',(23.0000000013,22.9999999978,2.)) ;
#40=CARTESIAN_POINT('Vertex',(21.7811959341,45.9676841812,2.)) ;
#42=CARTESIAN_POINT('Vertex',(3.71880406591,35.5393573739,2.)) ;
#45=CARTESIAN_POINT('Line Origine',(12.75,40.7535207776,2.)) ;
#55=CARTESIAN_POINT('Axis2P3D Location',(23.,46.6713610368,2.)) ;
#60=CARTESIAN_POINT('Line Origine',(21.7811959347,45.9676841816,4.5)) ;
#64=CARTESIAN_POINT('Vertex',(21.7811959341,45.9676841812,7.)) ;
#67=CARTESIAN_POINT('Line Origine',(3.71880406545,35.5393573737,4.5)) ;
#71=CARTESIAN_POINT('Vertex',(3.71880406591,35.5393573739,7.)) ;
#74=CARTESIAN_POINT('Line Origine',(12.7500000001,40.7535207776,7.)) ;
#86=CARTESIAN_POINT('Axis2P3D Location',(23.,23.,7.)) ;
#91=CARTESIAN_POINT('Axis2P3D Location',(23.,23.,7.)) ;
#95=CARTESIAN_POINT('Vertex',(42.918584287,34.5,7.)) ;
#97=CARTESIAN_POINT('Vertex',(42.2811959341,35.5393573739,7.)) ;
#100=CARTESIAN_POINT('Line Origine',(42.918584287,34.5,7.)) ;
#104=CARTESIAN_POINT('Vertex',(42.918584287,34.5,0.)) ;
#107=CARTESIAN_POINT('Axis2P3D Location',(23.,23.,0.)) ;
#111=CARTESIAN_POINT('Vertex',(3.08141571296,11.5,0.)) ;
#114=CARTESIAN_POINT('Line Origine',(3.08141571296,11.5,7.)) ;
#118=CARTESIAN_POINT('Vertex',(3.08141571296,11.5,7.)) ;
#121=CARTESIAN_POINT('Axis2P3D Location',(23.,23.,7.)) ;
#125=CARTESIAN_POINT('Vertex',(2.5,12.5716731927,7.)) ;
#128=CARTESIAN_POINT('Line Origine',(2.5,12.5716731927,7.)) ;
#132=CARTESIAN_POINT('Vertex',(2.5,12.5716731927,2.)) ;
#135=CARTESIAN_POINT('Axis2P3D Location',(23.,23.,2.)) ;
#139=CARTESIAN_POINT('Vertex',(2.5,33.4283268073,2.)) ;
#142=CARTESIAN_POINT('Line Origine',(2.5,33.4283268073,7.)) ;
#146=CARTESIAN_POINT('Vertex',(2.5,33.4283268073,7.)) ;
#149=CARTESIAN_POINT('Axis2P3D Location',(23.,23.,7.)) ;
#154=CARTESIAN_POINT('Axis2P3D Location',(23.,23.,7.)) ;
#158=CARTESIAN_POINT('Vertex',(24.2188040659,45.9676841812,7.)) ;
#161=CARTESIAN_POINT('Line Origine',(24.2188040659,45.9676841812,7.)) ;
#165=CARTESIAN_POINT('Vertex',(24.2188040659,45.9676841812,2.)) ;
#168=CARTESIAN_POINT('Axis2P3D Location',(23.,23.,2.)) ;
#172=CARTESIAN_POINT('Vertex',(42.2811959341,35.5393573739,2.)) ;
#175=CARTESIAN_POINT('Line Origine',(42.2811959341,35.5393573739,7.)) ;
#199=CARTESIAN_POINT('Axis2P3D Location',(43.5,34.8356805184,2.)) ;
#204=CARTESIAN_POINT('Line Origine',(33.2500000001,40.7535207775,2.)) ;
#209=CARTESIAN_POINT('Line Origine',(33.2500000001,40.7535207775,7.)) ;
#221=CARTESIAN_POINT('Axis2P3D Location',(23.,23.,2.)) ;
#231=CARTESIAN_POINT('Axis2P3D Location',(2.5,34.8356805184,2.)) ;
#236=CARTESIAN_POINT('Line Origine',(2.5,23.0000000001,2.)) ;
#241=CARTESIAN_POINT('Line Origine',(2.5,23.0000000001,7.)) ;
#253=CARTESIAN_POINT('Axis2P3D Location',(23.,23.,7.)) ;
#258=CARTESIAN_POINT('Line Origine',(36.8564064606,31.,7.)) ;
#262=CARTESIAN_POINT('Vertex',(36.8564064606,31.,0.)) ;
#264=CARTESIAN_POINT('Vertex',(36.8564064606,31.,7.)) ;
#267=CARTESIAN_POINT('Axis2P3D Location',(23.,23.,7.)) ;
#271=CARTESIAN_POINT('Vertex',(9.14359353945,15.,7.)) ;
#274=CARTESIAN_POINT('Line Origine',(9.14359353945,15.,7.)) ;
#278=CARTESIAN_POINT('Vertex',(9.14359353945,15.,0.)) ;
#281=CARTESIAN_POINT('Axis2P3D Location',(23.,23.,0.)) ;
#293=CARTESIAN_POINT('Axis2P3D Location',(23.,23.,7.)) ;
#298=CARTESIAN_POINT('Axis2P3D Location',(23.,23.,7.)) ;
#303=CARTESIAN_POINT('Axis2P3D Location',(23.,23.,0.)) ;
#315=CARTESIAN_POINT('Axis2P3D Location',(23.,-0.671361036775,2.)) ;
#320=CARTESIAN_POINT('Line Origine',(24.2188040653,0.0323158184169,4.5)) ;
#324=CARTESIAN_POINT('Vertex',(24.2188040659,0.0323158187655,7.)) ;
#326=CARTESIAN_POINT('Vertex',(24.2188040659,0.0323158187655,2.)) ;
#329=CARTESIAN_POINT('Line Origine',(33.2499999999,5.24647922238,2.)) ;
#333=CARTESIAN_POINT('Vertex',(42.2811959341,10.4606426261,2.)) ;
#336=CARTESIAN_POINT('Line Origine',(42.2811959345,10.4606426263,4.5)) ;
#340=CARTESIAN_POINT('Vertex',(42.2811959341,10.4606426261,7.)) ;
#343=CARTESIAN_POINT('Line Origine',(33.2499999999,5.24647922238,7.)) ;
#355=CARTESIAN_POINT('Axis2P3D Location',(23.,23.,2.)) ;
#360=CARTESIAN_POINT('Axis2P3D Location',(22.9999999987,23.0000000022,2.)) ;
#370=CARTESIAN_POINT('Axis2P3D Location',(23.,23.,2.)) ;
#375=CARTESIAN_POINT('Axis2P3D Location',(23.000000001,23.0000000011,2.)) ;
#379=CARTESIAN_POINT('Vertex',(3.71880406591,10.4606426261,2.)) ;
#381=CARTESIAN_POINT('Vertex',(21.7811959341,0.0323158187655,2.)) ;
#384=CARTESIAN_POINT('Line Origine',(12.7500000001,5.24647922249,2.)) ;
#394=CARTESIAN_POINT('Axis2P3D Location',(2.5,11.1643194816,2.)) ;
#399=CARTESIAN_POINT('Line Origine',(3.7188040653,10.4606426264,4.5)) ;
#403=CARTESIAN_POINT('Vertex',(3.71880406591,10.4606426261,7.)) ;
#406=CARTESIAN_POINT('Line Origine',(21.7811959345,0.0323158185049,4.5)) ;
#410=CARTESIAN_POINT('Vertex',(21.7811959341,0.0323158187655,7.)) ;
#413=CARTESIAN_POINT('Line Origine',(12.7499999999,5.24647922246,7.)) ;
#425=CARTESIAN_POINT('Axis2P3D Location',(23.,23.,2.)) ;
#435=CARTESIAN_POINT('Axis2P3D Location',(23.,23.,0.)) ;
#440=CARTESIAN_POINT('Axis2P3D Location',(23.,23.,0.)) ;
#454=CARTESIAN_POINT('Axis2P3D Location',(23.,23.,7.)) ;
#459=CARTESIAN_POINT('Axis2P3D Location',(23.0000010567,23.0000006451,7.)) ;
#464=CARTESIAN_POINT('Axis2P3D Location',(22.9999999988,23.0000001659,7.)) ;
#469=CARTESIAN_POINT('Axis2P3D Location',(22.999999857,23.000000084,7.)) ;
#473=CARTESIAN_POINT('Vertex',(43.5,12.5716731927,7.)) ;
#476=CARTESIAN_POINT('Line Origine',(43.4999999999,22.9999999999,7.)) ;
#480=CARTESIAN_POINT('Vertex',(43.5,33.4283268073,7.)) ;
#483=CARTESIAN_POINT('Axis2P3D Location',(22.999998913,22.9999994074,7.)) ;
#509=CARTESIAN_POINT('Axis2P3D Location',(23.,23.,7.)) ;
#514=CARTESIAN_POINT('Line Origine',(43.5,33.4283268073,7.)) ;
#518=CARTESIAN_POINT('Vertex',(43.5,33.4283268073,2.)) ;
#521=CARTESIAN_POINT('Axis2P3D Location',(23.,23.,2.)) ;
#525=CARTESIAN_POINT('Vertex',(43.5,12.5716731927,2.)) ;
#528=CARTESIAN_POINT('Line Origine',(43.5,12.5716731927,7.)) ;
#552=CARTESIAN_POINT('Axis2P3D Location',(43.5,11.1643194816,2.)) ;
#557=CARTESIAN_POINT('Line Origine',(43.5,22.9999999999,2.)) ;
#569=CARTESIAN_POINT('Axis2P3D Location',(23.,23.,2.)) ;
#32=DIRECTION('Axis2P3D Direction',(0.,-0.,1.)) ;
#33=DIRECTION('Axis2P3D XDirection',(0.866025403784,0.5,0.)) ;
#37=DIRECTION('Axis2P3D Direction',(0.,-0.,1.)) ;
#46=DIRECTION('Vector Direction',(-0.866025403784,-0.5,0.)) ;
#56=DIRECTION('Axis2P3D Direction',(-0.5,0.866025403784,0.)) ;
#57=DIRECTION('Axis2P3D XDirection',(-0.866025403784,-0.5,0.)) ;
#61=DIRECTION('Vector Direction',(0.,0.,-1.)) ;
#68=DIRECTION('Vector Direction',(0.,0.,1.)) ;
#75=DIRECTION('Vector Direction',(-0.866025403784,-0.5,0.)) ;
#87=DIRECTION('Axis2P3D Direction',(-0.,0.,-1.)) ;
#88=DIRECTION('Axis2P3D XDirection',(-0.866025403784,-0.5,0.)) ;
#92=DIRECTION('Axis2P3D Direction',(-0.,0.,-1.)) ;
#101=DIRECTION('Vector Direction',(0.,0.,-1.)) ;
#108=DIRECTION('Axis2P3D Direction',(-0.,0.,-1.)) ;
#115=DIRECTION('Vector Direction',(0.,0.,-1.)) ;
#122=DIRECTION('Axis2P3D Direction',(-0.,0.,-1.)) ;
#129=DIRECTION('Vector Direction',(0.,0.,-1.)) ;
#136=DIRECTION('Axis2P3D Direction',(-0.,0.,-1.)) ;
#143=DIRECTION('Vector Direction',(0.,0.,-1.)) ;
#150=DIRECTION('Axis2P3D Direction',(-0.,0.,-1.)) ;
#155=DIRECTION('Axis2P3D Direction',(-0.,0.,-1.)) ;
#162=DIRECTION('Vector Direction',(0.,0.,-1.)) ;
#169=DIRECTION('Axis2P3D Direction',(-0.,0.,-1.)) ;
#176=DIRECTION('Vector Direction',(0.,0.,-1.)) ;
#200=DIRECTION('Axis2P3D Direction',(0.5,0.866025403784,-0.)) ;
#201=DIRECTION('Axis2P3D XDirection',(-0.866025403784,0.5,0.)) ;
#205=DIRECTION('Vector Direction',(-0.866025403784,0.5,0.)) ;
#210=DIRECTION('Vector Direction',(-0.866025403784,0.5,0.)) ;
#222=DIRECTION('Axis2P3D Direction',(0.,-0.,1.)) ;
#223=DIRECTION('Axis2P3D XDirection',(0.866025403784,0.5,0.)) ;
#232=DIRECTION('Axis2P3D Direction',(-1.,2.22044604925E-016,0.)) ;
#233=DIRECTION('Axis2P3D XDirection',(-2.22044604925E-016,-1.,0.)) ;
#237=DIRECTION('Vector Direction',(-2.12924478696E-016,-1.,0.)) ;
#242=DIRECTION('Vector Direction',(-2.12924478696E-016,-1.,0.)) ;
#254=DIRECTION('Axis2P3D Direction',(-0.,0.,-1.)) ;
#255=DIRECTION('Axis2P3D XDirection',(-0.866025403784,-0.5,0.)) ;
#259=DIRECTION('Vector Direction',(0.,0.,-1.)) ;
#268=DIRECTION('Axis2P3D Direction',(-0.,0.,-1.)) ;
#275=DIRECTION('Vector Direction',(0.,0.,-1.)) ;
#282=DIRECTION('Axis2P3D Direction',(-0.,0.,-1.)) ;
#294=DIRECTION('Axis2P3D Direction',(-0.,0.,-1.)) ;
#295=DIRECTION('Axis2P3D XDirection',(0.866025403784,0.5,0.)) ;
#299=DIRECTION('Axis2P3D Direction',(-0.,0.,-1.)) ;
#304=DIRECTION('Axis2P3D Direction',(-0.,0.,-1.)) ;
#316=DIRECTION('Axis2P3D Direction',(0.5,-0.866025403784,0.)) ;
#317=DIRECTION('Axis2P3D XDirection',(0.,0.,-1.)) ;
#321=DIRECTION('Vector Direction',(0.,0.,-1.)) ;
#330=DIRECTION('Vector Direction',(0.866025403784,0.5,0.)) ;
#337=DIRECTION('Vector Direction',(0.,0.,1.)) ;
#344=DIRECTION('Vector Direction',(0.866025403784,0.5,0.)) ;
#356=DIRECTION('Axis2P3D Direction',(0.,-0.,1.)) ;
#357=DIRECTION('Axis2P3D XDirection',(0.866025403784,0.5,0.)) ;
#361=DIRECTION('Axis2P3D Direction',(0.,-0.,1.)) ;
#371=DIRECTION('Axis2P3D Direction',(0.,-0.,1.)) ;
#372=DIRECTION('Axis2P3D XDirection',(0.866025403784,0.5,0.)) ;
#376=DIRECTION('Axis2P3D Direction',(0.,-0.,1.)) ;
#385=DIRECTION('Vector Direction',(0.866025403779,-0.50000000001,0.)) ;
#395=DIRECTION('Axis2P3D Direction',(-0.5,-0.866025403784,0.)) ;
#396=DIRECTION('Axis2P3D XDirection',(0.866025403784,-0.5,0.)) ;
#400=DIRECTION('Vector Direction',(0.,0.,-1.)) ;
#407=DIRECTION('Vector Direction',(0.,0.,1.)) ;
#414=DIRECTION('Vector Direction',(0.866025403784,-0.5,0.)) ;
#426=DIRECTION('Axis2P3D Direction',(0.,-0.,1.)) ;
#427=DIRECTION('Axis2P3D XDirection',(0.866025403784,0.5,0.)) ;
#436=DIRECTION('Axis2P3D Direction',(0.,-0.,1.)) ;
#437=DIRECTION('Axis2P3D XDirection',(0.866025403784,0.5,0.)) ;
#441=DIRECTION('Axis2P3D Direction',(0.,-0.,1.)) ;
#455=DIRECTION('Axis2P3D Direction',(0.,-0.,1.)) ;
#456=DIRECTION('Axis2P3D XDirection',(0.866025403784,0.5,0.)) ;
#460=DIRECTION('Axis2P3D Direction',(0.,-0.,1.)) ;
#465=DIRECTION('Axis2P3D Direction',(0.,-0.,1.)) ;
#470=DIRECTION('Axis2P3D Direction',(0.,-0.,1.)) ;
#477=DIRECTION('Vector Direction',(-1.1517681241E-011,1.,0.)) ;
#484=DIRECTION('Axis2P3D Direction',(0.,-0.,1.)) ;
#510=DIRECTION('Axis2P3D Direction',(-0.,0.,-1.)) ;
#511=DIRECTION('Axis2P3D XDirection',(0.866025403784,0.5,0.)) ;
#515=DIRECTION('Vector Direction',(0.,0.,-1.)) ;
#522=DIRECTION('Axis2P3D Direction',(-0.,0.,-1.)) ;
#529=DIRECTION('Vector Direction',(0.,0.,-1.)) ;
#553=DIRECTION('Axis2P3D Direction',(1.,5.55111512313E-017,-0.)) ;
#554=DIRECTION('Axis2P3D XDirection',(-5.55111512313E-017,1.,0.)) ;
#558=DIRECTION('Vector Direction',(0.,1.,0.)) ;
#570=DIRECTION('Axis2P3D Direction',(0.,-0.,1.)) ;
#571=DIRECTION('Axis2P3D XDirection',(0.866025403784,0.5,0.)) ;
#8=PRODUCT_RELATED_PRODUCT_CATEGORY('part',$,(#5)) ;
#7=PRODUCT_CATEGORY('part','specification') ;
#29=STYLED_ITEM(' ',(#28),#21) ;
#28=PRESENTATION_STYLE_ASSIGNMENT((#27)) ;
#27=SURFACE_STYLE_USAGE(.BOTH.,#26) ;
#26=SURFACE_SIDE_STYLE(' ',(#25)) ;
#25=SURFACE_STYLE_FILL_AREA(#24) ;
#24=FILL_AREA_STYLE(' ',(#23)) ;
#23=FILL_AREA_STYLE_COLOUR(' ',#22) ;
#47=VECTOR('Line Direction',#46,1.) ;
#62=VECTOR('Line Direction',#61,1.) ;
#69=VECTOR('Line Direction',#68,1.) ;
#76=VECTOR('Line Direction',#75,1.) ;
#102=VECTOR('Line Direction',#101,1.) ;
#116=VECTOR('Line Direction',#115,1.) ;
#130=VECTOR('Line Direction',#129,1.) ;
#144=VECTOR('Line Direction',#143,1.) ;
#163=VECTOR('Line Direction',#162,1.) ;
#177=VECTOR('Line Direction',#176,1.) ;
#206=VECTOR('Line Direction',#205,1.) ;
#211=VECTOR('Line Direction',#210,1.) ;
#238=VECTOR('Line Direction',#237,1.) ;
#243=VECTOR('Line Direction',#242,1.) ;
#260=VECTOR('Line Direction',#259,1.) ;
#276=VECTOR('Line Direction',#275,1.) ;
#322=VECTOR('Line Direction',#321,1.) ;
#331=VECTOR('Line Direction',#330,1.) ;
#338=VECTOR('Line Direction',#337,1.) ;
#345=VECTOR('Line Direction',#344,1.) ;
#386=VECTOR('Line Direction',#385,1.) ;
#401=VECTOR('Line Direction',#400,1.) ;
#408=VECTOR('Line Direction',#407,1.) ;
#415=VECTOR('Line Direction',#414,1.) ;
#478=VECTOR('Line Direction',#477,1.) ;
#516=VECTOR('Line Direction',#515,1.) ;
#530=VECTOR('Line Direction',#529,1.) ;
#559=VECTOR('Line Direction',#558,1.) ;
#15=UNCERTAINTY_MEASURE_WITH_UNIT(LENGTH_MEASURE(0.005),#12,'distance_accuracy_value','CONFUSED CURVE UNCERTAINTY') ;
#580=SHAPE_REPRESENTATION_RELATIONSHIP(' ',' ',#19,#579) ;
#51=ORIENTED_EDGE('',*,*,#44,.T.) ;
#52=ORIENTED_EDGE('',*,*,#49,.F.) ;
#80=ORIENTED_EDGE('',*,*,#66,.T.) ;
#81=ORIENTED_EDGE('',*,*,#49,.T.) ;
#82=ORIENTED_EDGE('',*,*,#73,.T.) ;
#83=ORIENTED_EDGE('',*,*,#78,.F.) ;
#181=ORIENTED_EDGE('',*,*,#99,.F.) ;
#182=ORIENTED_EDGE('',*,*,#106,.T.) ;
#183=ORIENTED_EDGE('',*,*,#113,.T.) ;
#184=ORIENTED_EDGE('',*,*,#120,.F.) ;
#185=ORIENTED_EDGE('',*,*,#127,.F.) ;
#186=ORIENTED_EDGE('',*,*,#134,.F.) ;
#187=ORIENTED_EDGE('',*,*,#141,.F.) ;
#188=ORIENTED_EDGE('',*,*,#148,.F.) ;
#189=ORIENTED_EDGE('',*,*,#153,.F.) ;
#190=ORIENTED_EDGE('',*,*,#73,.F.) ;
#191=ORIENTED_EDGE('',*,*,#44,.F.) ;
#192=ORIENTED_EDGE('',*,*,#66,.F.) ;
#193=ORIENTED_EDGE('',*,*,#160,.F.) ;
#194=ORIENTED_EDGE('',*,*,#167,.F.) ;
#195=ORIENTED_EDGE('',*,*,#174,.F.) ;
#196=ORIENTED_EDGE('',*,*,#179,.F.) ;
#215=ORIENTED_EDGE('',*,*,#179,.T.) ;
#216=ORIENTED_EDGE('',*,*,#208,.T.) ;
#217=ORIENTED_EDGE('',*,*,#167,.T.) ;
#218=ORIENTED_EDGE('',*,*,#213,.F.) ;
#227=ORIENTED_EDGE('',*,*,#174,.T.) ;
#228=ORIENTED_EDGE('',*,*,#208,.F.) ;
#247=ORIENTED_EDGE('',*,*,#148,.T.) ;
#248=ORIENTED_EDGE('',*,*,#240,.T.) ;
#249=ORIENTED_EDGE('',*,*,#134,.T.) ;
#250=ORIENTED_EDGE('',*,*,#245,.F.) ;
#287=ORIENTED_EDGE('',*,*,#266,.T.) ;
#288=ORIENTED_EDGE('',*,*,#273,.F.) ;
#289=ORIENTED_EDGE('',*,*,#280,.T.) ;
#290=ORIENTED_EDGE('',*,*,#285,.T.) ;
#309=ORIENTED_EDGE('',*,*,#302,.F.) ;
#310=ORIENTED_EDGE('',*,*,#266,.F.) ;
#311=ORIENTED_EDGE('',*,*,#307,.T.) ;
#312=ORIENTED_EDGE('',*,*,#280,.F.) ;
#349=ORIENTED_EDGE('',*,*,#328,.T.) ;
#350=ORIENTED_EDGE('',*,*,#335,.T.) ;
#351=ORIENTED_EDGE('',*,*,#342,.T.) ;
#352=ORIENTED_EDGE('',*,*,#347,.F.) ;
#366=ORIENTED_EDGE('',*,*,#364,.T.) ;
#367=ORIENTED_EDGE('',*,*,#335,.F.) ;
#390=ORIENTED_EDGE('',*,*,#383,.T.) ;
#391=ORIENTED_EDGE('',*,*,#388,.F.) ;
#419=ORIENTED_EDGE('',*,*,#405,.T.) ;
#420=ORIENTED_EDGE('',*,*,#388,.T.) ;
#421=ORIENTED_EDGE('',*,*,#412,.T.) ;
#422=ORIENTED_EDGE('',*,*,#417,.F.) ;
#431=ORIENTED_EDGE('',*,*,#141,.T.) ;
#432=ORIENTED_EDGE('',*,*,#240,.F.) ;
#446=ORIENTED_EDGE('',*,*,#444,.F.) ;
#447=ORIENTED_EDGE('',*,*,#113,.F.) ;
#450=ORIENTED_EDGE('',*,*,#307,.F.) ;
#451=ORIENTED_EDGE('',*,*,#285,.F.) ;
#489=ORIENTED_EDGE('',*,*,#127,.T.) ;
#490=ORIENTED_EDGE('',*,*,#463,.T.) ;
#491=ORIENTED_EDGE('',*,*,#417,.T.) ;
#492=ORIENTED_EDGE('',*,*,#468,.T.) ;
#493=ORIENTED_EDGE('',*,*,#347,.T.) ;
#494=ORIENTED_EDGE('',*,*,#475,.T.) ;
#495=ORIENTED_EDGE('',*,*,#482,.T.) ;
#496=ORIENTED_EDGE('',*,*,#487,.T.) ;
#497=ORIENTED_EDGE('',*,*,#99,.T.) ;
#498=ORIENTED_EDGE('',*,*,#213,.T.) ;
#499=ORIENTED_EDGE('',*,*,#160,.T.) ;
#500=ORIENTED_EDGE('',*,*,#78,.T.) ;
#501=ORIENTED_EDGE('',*,*,#153,.T.) ;
#502=ORIENTED_EDGE('',*,*,#245,.T.) ;
#505=ORIENTED_EDGE('',*,*,#273,.T.) ;
#506=ORIENTED_EDGE('',*,*,#302,.T.) ;
#534=ORIENTED_EDGE('',*,*,#106,.F.) ;
#535=ORIENTED_EDGE('',*,*,#487,.F.) ;
#536=ORIENTED_EDGE('',*,*,#520,.F.) ;
#537=ORIENTED_EDGE('',*,*,#527,.F.) ;
#538=ORIENTED_EDGE('',*,*,#532,.F.) ;
#539=ORIENTED_EDGE('',*,*,#475,.F.) ;
#540=ORIENTED_EDGE('',*,*,#342,.F.) ;
#541=ORIENTED_EDGE('',*,*,#364,.F.) ;
#542=ORIENTED_EDGE('',*,*,#328,.F.) ;
#543=ORIENTED_EDGE('',*,*,#468,.F.) ;
#544=ORIENTED_EDGE('',*,*,#412,.F.) ;
#545=ORIENTED_EDGE('',*,*,#383,.F.) ;
#546=ORIENTED_EDGE('',*,*,#405,.F.) ;
#547=ORIENTED_EDGE('',*,*,#463,.F.) ;
#548=ORIENTED_EDGE('',*,*,#120,.T.) ;
#549=ORIENTED_EDGE('',*,*,#444,.T.) ;
#563=ORIENTED_EDGE('',*,*,#532,.T.) ;
#564=ORIENTED_EDGE('',*,*,#561,.T.) ;
#565=ORIENTED_EDGE('',*,*,#520,.T.) ;
#566=ORIENTED_EDGE('',*,*,#482,.F.) ;
#575=ORIENTED_EDGE('',*,*,#527,.T.) ;
#576=ORIENTED_EDGE('',*,*,#561,.F.) ;
#452=FACE_BOUND('',#449,.T.) ;
#507=FACE_BOUND('',#504,.T.) ;
#30=CLOSED_SHELL('Closed Shell',(#54,#85,#198,#220,#230,#252,#292,#314,#354,#369,#393,#424,#434,#453,#508,#551,#568,#578)) ;
#579=ADVANCED_BREP_SHAPE_REPRESENTATION('NONE',(#21),#16) ;
#54=ADVANCED_FACE('Fase1',(#53),#35,.T.) ;
#85=ADVANCED_FACE('Fase1',(#84),#59,.T.) ;
#198=ADVANCED_FACE('Fase1',(#197),#90,.T.) ;
#220=ADVANCED_FACE('Fase1',(#219),#203,.T.) ;
#230=ADVANCED_FACE('Fase1',(#229),#225,.T.) ;
#252=ADVANCED_FACE('Fase1',(#251),#235,.T.) ;
#292=ADVANCED_FACE('Fase1',(#291),#257,.F.) ;
#314=ADVANCED_FACE('Fase1',(#313),#297,.F.) ;
#354=ADVANCED_FACE('Fase1',(#353),#319,.T.) ;
#369=ADVANCED_FACE('Fase1',(#368),#359,.T.) ;
#393=ADVANCED_FACE('Fase1',(#392),#374,.T.) ;
#424=ADVANCED_FACE('Fase1',(#423),#398,.T.) ;
#434=ADVANCED_FACE('Fase1',(#433),#429,.T.) ;
#453=ADVANCED_FACE('Fase1',(#448,#452),#439,.F.) ;
#508=ADVANCED_FACE('Fase1',(#503,#507),#458,.T.) ;
#551=ADVANCED_FACE('Fase1',(#550),#513,.T.) ;
#568=ADVANCED_FACE('Fase1',(#567),#556,.T.) ;
#578=ADVANCED_FACE('Fase1',(#577),#573,.T.) ;
#4=APPLICATION_PROTOCOL_DEFINITION('international standard','automotive_design',2001,#1) ;
#21=MANIFOLD_SOLID_BREP('Fase1',#30) ;
#39=CIRCLE('generated circle',#38,23.0000000025) ;
#94=CIRCLE('generated circle',#93,23.) ;
#110=CIRCLE('generated circle',#109,23.) ;
#124=CIRCLE('generated circle',#123,23.) ;
#138=CIRCLE('generated circle',#137,23.) ;
#152=CIRCLE('generated circle',#151,23.) ;
#157=CIRCLE('generated circle',#156,23.) ;
#171=CIRCLE('generated circle',#170,23.) ;
#270=CIRCLE('generated circle',#269,16.) ;
#284=CIRCLE('generated circle',#283,16.) ;
#301=CIRCLE('generated circle',#300,16.) ;
#306=CIRCLE('generated circle',#305,16.) ;
#363=CIRCLE('generated circle',#362,23.0000000025) ;
#378=CIRCLE('generated circle',#377,23.0000000016) ;
#443=CIRCLE('generated circle',#442,23.) ;
#462=CIRCLE('generated circle',#461,23.0000012377) ;
#467=CIRCLE('generated circle',#466,23.000000166) ;
#472=CIRCLE('generated circle',#471,23.000000166) ;
#486=CIRCLE('generated circle',#485,23.0000012377) ;
#524=CIRCLE('generated circle',#523,23.) ;
#22=COLOUR_RGB('Colour',0.760784313725,0.749019607843,0.721568627451) ;
#90=CYLINDRICAL_SURFACE('generated cylinder',#89,23.) ;
#257=CYLINDRICAL_SURFACE('generated cylinder',#256,16.) ;
#297=CYLINDRICAL_SURFACE('generated cylinder',#296,16.) ;
#513=CYLINDRICAL_SURFACE('generated cylinder',#512,23.) ;
#44=EDGE_CURVE('',#41,#43,#39,.T.) ;
#49=EDGE_CURVE('',#41,#43,#48,.T.) ;
#66=EDGE_CURVE('',#65,#41,#63,.T.) ;
#73=EDGE_CURVE('',#43,#72,#70,.T.) ;
#78=EDGE_CURVE('',#65,#72,#77,.T.) ;
#99=EDGE_CURVE('',#96,#98,#94,.F.) ;
#106=EDGE_CURVE('',#96,#105,#103,.T.) ;
#113=EDGE_CURVE('',#105,#112,#110,.F.) ;
#120=EDGE_CURVE('',#119,#112,#117,.T.) ;
#127=EDGE_CURVE('',#126,#119,#124,.F.) ;
#134=EDGE_CURVE('',#133,#126,#131,.F.) ;
#141=EDGE_CURVE('',#140,#133,#138,.F.) ;
#148=EDGE_CURVE('',#147,#140,#145,.T.) ;
#153=EDGE_CURVE('',#72,#147,#152,.F.) ;
#160=EDGE_CURVE('',#159,#65,#157,.F.) ;
#167=EDGE_CURVE('',#166,#159,#164,.F.) ;
#174=EDGE_CURVE('',#173,#166,#171,.F.) ;
#179=EDGE_CURVE('',#98,#173,#178,.T.) ;
#208=EDGE_CURVE('',#173,#166,#207,.T.) ;
#213=EDGE_CURVE('',#98,#159,#212,.T.) ;
#240=EDGE_CURVE('',#140,#133,#239,.T.) ;
#245=EDGE_CURVE('',#147,#126,#244,.T.) ;
#266=EDGE_CURVE('',#263,#265,#261,.F.) ;
#273=EDGE_CURVE('',#272,#265,#270,.T.) ;
#280=EDGE_CURVE('',#272,#279,#277,.T.) ;
#285=EDGE_CURVE('',#279,#263,#284,.T.) ;
#302=EDGE_CURVE('',#265,#272,#301,.T.) ;
#307=EDGE_CURVE('',#263,#279,#306,.T.) ;
#328=EDGE_CURVE('',#325,#327,#323,.T.) ;
#335=EDGE_CURVE('',#327,#334,#332,.T.) ;
#342=EDGE_CURVE('',#334,#341,#339,.T.) ;
#347=EDGE_CURVE('',#325,#341,#346,.T.) ;
#364=EDGE_CURVE('',#327,#334,#363,.T.) ;
#383=EDGE_CURVE('',#380,#382,#378,.T.) ;
#388=EDGE_CURVE('',#380,#382,#387,.T.) ;
#405=EDGE_CURVE('',#404,#380,#402,.T.) ;
#412=EDGE_CURVE('',#382,#411,#409,.T.) ;
#417=EDGE_CURVE('',#404,#411,#416,.T.) ;
#444=EDGE_CURVE('',#112,#105,#443,.T.) ;
#463=EDGE_CURVE('',#119,#404,#462,.T.) ;
#468=EDGE_CURVE('',#411,#325,#467,.T.) ;
#475=EDGE_CURVE('',#341,#474,#472,.T.) ;
#482=EDGE_CURVE('',#474,#481,#479,.T.) ;
#487=EDGE_CURVE('',#481,#96,#486,.T.) ;
#520=EDGE_CURVE('',#519,#481,#517,.F.) ;
#527=EDGE_CURVE('',#526,#519,#524,.F.) ;
#532=EDGE_CURVE('',#474,#526,#531,.T.) ;
#561=EDGE_CURVE('',#526,#519,#560,.T.) ;
#50=EDGE_LOOP('',(#51,#52)) ;
#79=EDGE_LOOP('',(#80,#81,#82,#83)) ;
#180=EDGE_LOOP('',(#181,#182,#183,#184,#185,#186,#187,#188,#189,#190,#191,#192,#193,#194,#195,#196)) ;
#214=EDGE_LOOP('',(#215,#216,#217,#218)) ;
#226=EDGE_LOOP('',(#227,#228)) ;
#246=EDGE_LOOP('',(#247,#248,#249,#250)) ;
#286=EDGE_LOOP('',(#287,#288,#289,#290)) ;
#308=EDGE_LOOP('',(#309,#310,#311,#312)) ;
#348=EDGE_LOOP('',(#349,#350,#351,#352)) ;
#365=EDGE_LOOP('',(#366,#367)) ;
#389=EDGE_LOOP('',(#390,#391)) ;
#418=EDGE_LOOP('',(#419,#420,#421,#422)) ;
#430=EDGE_LOOP('',(#431,#432)) ;
#445=EDGE_LOOP('',(#446,#447)) ;
#449=EDGE_LOOP('',(#450,#451)) ;
#488=EDGE_LOOP('',(#489,#490,#491,#492,#493,#494,#495,#496,#497,#498,#499,#500,#501,#502)) ;
#504=EDGE_LOOP('',(#505,#506)) ;
#533=EDGE_LOOP('',(#534,#535,#536,#537,#538,#539,#540,#541,#542,#543,#544,#545,#546,#547,#548,#549)) ;
#562=EDGE_LOOP('',(#563,#564,#565,#566)) ;
#574=EDGE_LOOP('',(#575,#576)) ;
#53=FACE_OUTER_BOUND('',#50,.T.) ;
#84=FACE_OUTER_BOUND('',#79,.T.) ;
#197=FACE_OUTER_BOUND('',#180,.T.) ;
#219=FACE_OUTER_BOUND('',#214,.T.) ;
#229=FACE_OUTER_BOUND('',#226,.T.) ;
#251=FACE_OUTER_BOUND('',#246,.T.) ;
#291=FACE_OUTER_BOUND('',#286,.T.) ;
#313=FACE_OUTER_BOUND('',#308,.T.) ;
#353=FACE_OUTER_BOUND('',#348,.T.) ;
#368=FACE_OUTER_BOUND('',#365,.T.) ;
#392=FACE_OUTER_BOUND('',#389,.T.) ;
#423=FACE_OUTER_BOUND('',#418,.T.) ;
#433=FACE_OUTER_BOUND('',#430,.T.) ;
#448=FACE_OUTER_BOUND('',#445,.T.) ;
#503=FACE_OUTER_BOUND('',#488,.T.) ;
#550=FACE_OUTER_BOUND('',#533,.T.) ;
#567=FACE_OUTER_BOUND('',#562,.T.) ;
#577=FACE_OUTER_BOUND('',#574,.T.) ;
#48=LINE('Line',#45,#47) ;
#63=LINE('Line',#60,#62) ;
#70=LINE('Line',#67,#69) ;
#77=LINE('Line',#74,#76) ;
#103=LINE('Line',#100,#102) ;
#117=LINE('Line',#114,#116) ;
#131=LINE('Line',#128,#130) ;
#145=LINE('Line',#142,#144) ;
#164=LINE('Line',#161,#163) ;
#178=LINE('Line',#175,#177) ;
#207=LINE('Line',#204,#206) ;
#212=LINE('Line',#209,#211) ;
#239=LINE('Line',#236,#238) ;
#244=LINE('Line',#241,#243) ;
#261=LINE('Line',#258,#260) ;
#277=LINE('Line',#274,#276) ;
#323=LINE('Line',#320,#322) ;
#332=LINE('Line',#329,#331) ;
#339=LINE('Line',#336,#338) ;
#346=LINE('Line',#343,#345) ;
#387=LINE('Line',#384,#386) ;
#402=LINE('Line',#399,#401) ;
#409=LINE('Line',#406,#408) ;
#416=LINE('Line',#413,#415) ;
#479=LINE('Line',#476,#478) ;
#517=LINE('Line',#514,#516) ;
#531=LINE('Line',#528,#530) ;
#560=LINE('Line',#557,#559) ;
#35=PLANE('',#34) ;
#59=PLANE('',#58) ;
#203=PLANE('',#202) ;
#225=PLANE('',#224) ;
#235=PLANE('',#234) ;
#319=PLANE('',#318) ;
#359=PLANE('',#358) ;
#374=PLANE('',#373) ;
#398=PLANE('',#397) ;
#429=PLANE('',#428) ;
#439=PLANE('',#438) ;
#458=PLANE('',#457) ;
#556=PLANE('',#555) ;
#573=PLANE('',#572) ;
#9=PRODUCT_CATEGORY_RELATIONSHIP(' ',' ',#7,#8) ;
#6=PRODUCT_DEFINITION_FORMATION_WITH_SPECIFIED_SOURCE('',' ',#5,.NOT_KNOWN.) ;
#20=SHAPE_DEFINITION_REPRESENTATION(#11,#19) ;
#41=VERTEX_POINT('',#40) ;
#43=VERTEX_POINT('',#42) ;
#65=VERTEX_POINT('',#64) ;
#72=VERTEX_POINT('',#71) ;
#96=VERTEX_POINT('',#95) ;
#98=VERTEX_POINT('',#97) ;
#105=VERTEX_POINT('',#104) ;
#112=VERTEX_POINT('',#111) ;
#119=VERTEX_POINT('',#118) ;
#126=VERTEX_POINT('',#125) ;
#133=VERTEX_POINT('',#132) ;
#140=VERTEX_POINT('',#139) ;
#147=VERTEX_POINT('',#146) ;
#159=VERTEX_POINT('',#158) ;
#166=VERTEX_POINT('',#165) ;
#173=VERTEX_POINT('',#172) ;
#263=VERTEX_POINT('',#262) ;
#265=VERTEX_POINT('',#264) ;
#272=VERTEX_POINT('',#271) ;
#279=VERTEX_POINT('',#278) ;
#325=VERTEX_POINT('',#324) ;
#327=VERTEX_POINT('',#326) ;
#334=VERTEX_POINT('',#333) ;
#341=VERTEX_POINT('',#340) ;
#380=VERTEX_POINT('',#379) ;
#382=VERTEX_POINT('',#381) ;
#404=VERTEX_POINT('',#403) ;
#411=VERTEX_POINT('',#410) ;
#474=VERTEX_POINT('',#473) ;
#481=VERTEX_POINT('',#480) ;
#519=VERTEX_POINT('',#518) ;
#526=VERTEX_POINT('',#525) ;
#12=(LENGTH_UNIT()NAMED_UNIT(*)SI_UNIT(.MILLI.,.METRE.)) ;
#13=(NAMED_UNIT(*)PLANE_ANGLE_UNIT()SI_UNIT($,.RADIAN.)) ;
#14=(NAMED_UNIT(*)SI_UNIT($,.STERADIAN.)SOLID_ANGLE_UNIT()) ;
#16=(GEOMETRIC_REPRESENTATION_CONTEXT(3)GLOBAL_UNCERTAINTY_ASSIGNED_CONTEXT((#15))GLOBAL_UNIT_ASSIGNED_CONTEXT((#12,#13,#14))REPRESENTATION_CONTEXT(' ',' ')) ;
ENDSEC;
END-ISO-10303-21;
