ISO-10303-21;
HEADER;
FILE_DESCRIPTION(('CATIA V5 STEP Exchange','CAx-IF Rec.Pracs.--- Model Styling and Organization---1.5--- 2016-08-15','CAx-IF Rec.Pracs.---Supplemental Geometry---1.0---2011-11-01','CAx-IF Rec.Pracs.--- Composite Materials ---1.1---2010-07-15'),'2;1');

FILE_NAME ('706727-1_3_2652420000_2652420000.stp','2024-06-13T08:53:13+00:00',('none'),('Weidmueller'),'CATIA Version 5-6 Release 2022 SP4 HF5','CATIA V5 STEP AP214 v3','none');

FILE_SCHEMA(('AUTOMOTIVE_DESIGN { 1 0 10303 214 1 1 1 1 }'));

ENDSEC;
DATA;
#5=PRODUCT('CABTITE BP 14MM PA','CABTITE BP 14MM PA',' ',(#2)) ;
#2=PRODUCT_CONTEXT(' ',#1,'mechanical') ;
#1=APPLICATION_CONTEXT('automotive design') ;
#10=PRODUCT_DEFINITION(' ',' ',#6,#3) ;
#3=PRODUCT_DEFINITION_CONTEXT('part definition',#1,' ') ;
#11=PRODUCT_DEFINITION_SHAPE(' ',' ',#10) ;
#453=MECHANICAL_DESIGN_GEOMETRIC_PRESENTATION_REPRESENTATION(' ',(#87,#113,#184,#208,#225,#237,#244,#276,#289,#321,#334,#399,#431,#444,#450,#29),#16) ;
#19=SHAPE_REPRESENTATION(' ',(#18),#16) ;
#18=AXIS2_PLACEMENT_3D(' ',#17,$,$) ;
#35=AXIS2_PLACEMENT_3D('Cylinder Axis2P3D',#32,#33,#34) ;
#48=AXIS2_PLACEMENT_3D('Circle Axis2P3D',#46,#47,$) ;
#62=AXIS2_PLACEMENT_3D('Circle Axis2P3D',#60,#61,$) ;
#69=AXIS2_PLACEMENT_3D('Circle Axis2P3D',#67,#68,$) ;
#90=AXIS2_PLACEMENT_3D('Circle Axis2P3D',#88,#89,$) ;
#95=AXIS2_PLACEMENT_3D('Circle Axis2P3D',#93,#94,$) ;
#102=AXIS2_PLACEMENT_3D('Circle Axis2P3D',#100,#101,$) ;
#117=AXIS2_PLACEMENT_3D('Plane Axis2P3D',#114,#115,#116) ;
#188=AXIS2_PLACEMENT_3D('Sphere Axis2P3D',#185,#186,#187) ;
#192=AXIS2_PLACEMENT_3D('Circle Axis2P3D',#190,#191,$) ;
#199=AXIS2_PLACEMENT_3D('Circle Axis2P3D',#197,#198,$) ;
#212=AXIS2_PLACEMENT_3D('Sphere Axis2P3D',#209,#210,#211) ;
#216=AXIS2_PLACEMENT_3D('Circle Axis2P3D',#214,#215,$) ;
#228=AXIS2_PLACEMENT_3D('Circle Axis2P3D',#226,#227,$) ;
#248=AXIS2_PLACEMENT_3D('Cylinder Axis2P3D',#245,#246,#247) ;
#259=AXIS2_PLACEMENT_3D('Circle Axis2P3D',#257,#258,$) ;
#279=AXIS2_PLACEMENT_3D('Circle Axis2P3D',#277,#278,$) ;
#293=AXIS2_PLACEMENT_3D('Cone Axis2P3D',#290,#291,#292) ;
#311=AXIS2_PLACEMENT_3D('Circle Axis2P3D',#309,#310,$) ;
#324=AXIS2_PLACEMENT_3D('Circle Axis2P3D',#322,#323,$) ;
#338=AXIS2_PLACEMENT_3D('Plane Axis2P3D',#335,#336,#337) ;
#403=AXIS2_PLACEMENT_3D('Cylinder Axis2P3D',#400,#401,#402) ;
#407=AXIS2_PLACEMENT_3D('Circle Axis2P3D',#405,#406,$) ;
#434=AXIS2_PLACEMENT_3D('Circle Axis2P3D',#432,#433,$) ;
#17=CARTESIAN_POINT(' ',(0.,0.,0.)) ;
#32=CARTESIAN_POINT('Axis2P3D Location',(7.9,7.9,16.5)) ;
#37=CARTESIAN_POINT('Line Origine',(-1.7763568394E-15,7.9,16.5)) ;
#41=CARTESIAN_POINT('Vertex',(-1.7763568394E-15,7.9,16.5)) ;
#43=CARTESIAN_POINT('Vertex',(-1.7763568394E-15,7.9,17.)) ;
#46=CARTESIAN_POINT('Axis2P3D Location',(7.9,7.9,16.5)) ;
#50=CARTESIAN_POINT('Vertex',(15.8,7.9,16.5)) ;
#53=CARTESIAN_POINT('Line Origine',(15.8,7.9,16.5)) ;
#57=CARTESIAN_POINT('Vertex',(15.8,7.9,17.)) ;
#60=CARTESIAN_POINT('Axis2P3D Location',(7.9,7.9,17.)) ;
#64=CARTESIAN_POINT('Vertex',(7.9,0.,17.)) ;
#67=CARTESIAN_POINT('Axis2P3D Location',(7.9,7.9,17.)) ;
#88=CARTESIAN_POINT('Axis2P3D Location',(7.9,7.9,16.5)) ;
#93=CARTESIAN_POINT('Axis2P3D Location',(7.9,7.9,17.)) ;
#97=CARTESIAN_POINT('Vertex',(7.90000000002,15.8,17.)) ;
#100=CARTESIAN_POINT('Axis2P3D Location',(7.9,7.9,17.)) ;
#114=CARTESIAN_POINT('Axis2P3D Location',(7.9,-4.4408920985E-15,16.5)) ;
#124=CARTESIAN_POINT('Control Point',(14.9,7.90000000037,16.5)) ;
#125=CARTESIAN_POINT('Control Point',(14.9,7.25196206256,16.5)) ;
#126=CARTESIAN_POINT('Control Point',(14.8250083611,6.60392478639,16.5)) ;
#127=CARTESIAN_POINT('Control Point',(14.6749748312,5.96731501393,16.5)) ;
#128=CARTESIAN_POINT('Control Point',(14.2304107181,4.74066354534,16.5)) ;
#129=CARTESIAN_POINT('Control Point',(13.5174500779,3.64796444046,16.5)) ;
#130=CARTESIAN_POINT('Control Point',(13.0989282986,3.1453496701,16.5)) ;
#131=CARTESIAN_POINT('Control Point',(12.1533897204,2.24631248037,16.5)) ;
#132=CARTESIAN_POINT('Control Point',(11.0275173886,1.58698275281,16.5)) ;
#133=CARTESIAN_POINT('Control Point',(10.4285988454,1.32415457242,16.5)) ;
#134=CARTESIAN_POINT('Control Point',(9.18110502807,0.941963165388,16.5)) ;
#135=CARTESIAN_POINT('Control Point',(7.87929731146,0.854780118873,16.5)) ;
#136=CARTESIAN_POINT('Control Point',(7.22604382658,0.887059227293,16.5)) ;
#137=CARTESIAN_POINT('Control Point',(5.93917026907,1.10215817634,16.5)) ;
#138=CARTESIAN_POINT('Control Point',(4.73543479052,1.605472313,16.5)) ;
#139=CARTESIAN_POINT('Control Point',(4.16534471573,1.92606452036,16.5)) ;
#140=CARTESIAN_POINT('Control Point',(3.10995566455,2.69317928348,16.5)) ;
#141=CARTESIAN_POINT('Control Point',(2.25765756878,3.68105183084,16.5)) ;
#142=CARTESIAN_POINT('Control Point',(1.8907248319,4.22247812254,16.5)) ;
#143=CARTESIAN_POINT('Control Point',(1.35313800543,5.25668173853,16.5)) ;
#144=CARTESIAN_POINT('Control Point',(1.03924980171,6.37614779662,16.5)) ;
#145=CARTESIAN_POINT('Control Point',(0.946412564913,6.88037220174,16.5)) ;
#146=CARTESIAN_POINT('Control Point',(0.9,7.39018595524,16.5)) ;
#147=CARTESIAN_POINT('Control Point',(0.9,7.90000000037,16.5)) ;
#148=CARTESIAN_POINT('Vertex',(14.9,7.9,16.5)) ;
#150=CARTESIAN_POINT('Vertex',(0.9,7.90000000037,16.5)) ;
#154=CARTESIAN_POINT('Control Point',(0.9,7.90000000037,16.5)) ;
#155=CARTESIAN_POINT('Control Point',(0.9,8.54803793966,16.5)) ;
#156=CARTESIAN_POINT('Control Point',(0.974991639349,9.1960752173,16.5)) ;
#157=CARTESIAN_POINT('Control Point',(1.125025168,9.83268498021,16.5)) ;
#158=CARTESIAN_POINT('Control Point',(1.56958928406,11.0593364586,16.5)) ;
#159=CARTESIAN_POINT('Control Point',(2.28254993135,12.1520355712,16.5)) ;
#160=CARTESIAN_POINT('Control Point',(2.7010716923,12.654650319,16.5)) ;
#161=CARTESIAN_POINT('Control Point',(3.64661028056,13.5536875205,16.5)) ;
#162=CARTESIAN_POINT('Control Point',(4.77248262671,14.2130172541,16.5)) ;
#163=CARTESIAN_POINT('Control Point',(5.37140115106,14.4758454263,16.5)) ;
#164=CARTESIAN_POINT('Control Point',(6.61889497126,14.8580368339,16.5)) ;
#165=CARTESIAN_POINT('Control Point',(7.92070269063,14.9452198795,16.5)) ;
#166=CARTESIAN_POINT('Control Point',(8.57395618661,14.9129407733,16.5)) ;
#167=CARTESIAN_POINT('Control Point',(9.8608297326,14.6978418242,16.5)) ;
#168=CARTESIAN_POINT('Control Point',(11.0645652008,14.1945276925,16.5)) ;
#169=CARTESIAN_POINT('Control Point',(11.6346552965,13.8739354716,16.5)) ;
#170=CARTESIAN_POINT('Control Point',(12.6900443394,13.1068207124,16.5)) ;
#171=CARTESIAN_POINT('Control Point',(13.5423424294,12.1189481718,16.5)) ;
#172=CARTESIAN_POINT('Control Point',(13.9092751691,11.5775218758,16.5)) ;
#173=CARTESIAN_POINT('Control Point',(14.4468619944,10.543318262,16.5)) ;
#174=CARTESIAN_POINT('Control Point',(14.7607501978,9.42385220643,16.5)) ;
#175=CARTESIAN_POINT('Control Point',(14.8535874353,8.91962779669,16.5)) ;
#176=CARTESIAN_POINT('Control Point',(14.9,8.40981404435,16.5)) ;
#177=CARTESIAN_POINT('Control Point',(14.9,7.90000000037,16.5)) ;
#185=CARTESIAN_POINT('Axis2P3D Location',(7.9,7.9,-45.16)) ;
#190=CARTESIAN_POINT('Axis2P3D Location',(7.9,7.9,-45.16)) ;
#194=CARTESIAN_POINT('Vertex',(7.9,7.9,17.5)) ;
#197=CARTESIAN_POINT('Axis2P3D Location',(7.9,7.9,-45.16)) ;
#209=CARTESIAN_POINT('Axis2P3D Location',(7.9,7.9,-45.16)) ;
#214=CARTESIAN_POINT('Axis2P3D Location',(7.9,7.9,-45.16)) ;
#226=CARTESIAN_POINT('Axis2P3D Location',(7.9,7.9,-45.16)) ;
#245=CARTESIAN_POINT('Axis2P3D Location',(7.9,7.9,16.5)) ;
#250=CARTESIAN_POINT('Line Origine',(0.9,7.9,16.5)) ;
#254=CARTESIAN_POINT('Vertex',(0.9,7.9,2.)) ;
#257=CARTESIAN_POINT('Axis2P3D Location',(7.9,7.9,2.)) ;
#261=CARTESIAN_POINT('Vertex',(14.9,7.9,2.)) ;
#264=CARTESIAN_POINT('Line Origine',(14.9,7.9,16.5)) ;
#277=CARTESIAN_POINT('Axis2P3D Location',(7.9,7.9,2.)) ;
#290=CARTESIAN_POINT('Axis2P3D Location',(7.9,7.9,0.)) ;
#295=CARTESIAN_POINT('Line Origine',(980591.874583,7.89999999976,4902886.87868)) ;
#299=CARTESIAN_POINT('Vertex',(14.5,7.9,0.)) ;
#302=CARTESIAN_POINT('Line Origine',(-980576.074583,7.90000000012,4902886.87868)) ;
#306=CARTESIAN_POINT('Vertex',(1.30000000002,7.9,-1.11938967509E-10)) ;
#309=CARTESIAN_POINT('Axis2P3D Location',(7.9,7.9,0.)) ;
#322=CARTESIAN_POINT('Axis2P3D Location',(7.9,7.9,0.)) ;
#335=CARTESIAN_POINT('Axis2P3D Location',(7.9,0.9,0.)) ;
#345=CARTESIAN_POINT('Control Point',(2.9,7.9,0.)) ;
#346=CARTESIAN_POINT('Control Point',(2.9,8.44766418677,0.)) ;
#347=CARTESIAN_POINT('Control Point',(2.97498401912,8.99532744786,0.)) ;
#348=CARTESIAN_POINT('Control Point',(3.12504829301,9.52952904586,0.)) ;
#349=CARTESIAN_POINT('Control Point',(3.56739537759,10.5427258603,0.)) ;
#350=CARTESIAN_POINT('Control Point',(4.26580134674,11.3997321038,0.)) ;
#351=CARTESIAN_POINT('Control Point',(4.67209172696,11.7776457913,0.)) ;
#352=CARTESIAN_POINT('Control Point',(5.57733908959,12.412284241,0.)) ;
#353=CARTESIAN_POINT('Control Point',(6.6198545225,12.7802409973,0.)) ;
#354=CARTESIAN_POINT('Control Point',(7.16350504226,12.8913028242,0.)) ;
#355=CARTESIAN_POINT('Control Point',(8.26680986444,12.9617105154,0.)) ;
#356=CARTESIAN_POINT('Control Point',(9.34843223402,12.7329668619,0.)) ;
#357=CARTESIAN_POINT('Control Point',(9.87039029892,12.5446841404,0.)) ;
#358=CARTESIAN_POINT('Control Point',(10.84896527,12.0302623035,0.)) ;
#359=CARTESIAN_POINT('Control Point',(11.6532507582,11.271740404,0.)) ;
#360=CARTESIAN_POINT('Control Point',(12.0008102101,10.8391979023,0.)) ;
#361=CARTESIAN_POINT('Control Point',(12.4934114873,10.0157355015,0.)) ;
#362=CARTESIAN_POINT('Control Point',(12.7781653738,9.10365625416,0.)) ;
#363=CARTESIAN_POINT('Control Point',(12.8593937028,8.70603980509,0.)) ;
#364=CARTESIAN_POINT('Control Point',(12.9,8.3030200809,0.)) ;
#365=CARTESIAN_POINT('Control Point',(12.9,7.9,0.)) ;
#366=CARTESIAN_POINT('Vertex',(2.9,7.9,3.72523345504E-10)) ;
#368=CARTESIAN_POINT('Vertex',(12.9,7.9,3.72523345504E-10)) ;
#372=CARTESIAN_POINT('Control Point',(12.9,7.9,0.)) ;
#373=CARTESIAN_POINT('Control Point',(12.9,7.35233581327,0.)) ;
#374=CARTESIAN_POINT('Control Point',(12.8250159809,6.80467255223,0.)) ;
#375=CARTESIAN_POINT('Control Point',(12.674951707,6.27047095404,0.)) ;
#376=CARTESIAN_POINT('Control Point',(12.2326046224,5.25727413961,0.)) ;
#377=CARTESIAN_POINT('Control Point',(11.5341986533,4.40026789617,0.)) ;
#378=CARTESIAN_POINT('Control Point',(11.127908273,4.02235420884,0.)) ;
#379=CARTESIAN_POINT('Control Point',(10.2226609104,3.38771575893,0.)) ;
#380=CARTESIAN_POINT('Control Point',(9.18014547723,3.01975900271,0.)) ;
#381=CARTESIAN_POINT('Control Point',(8.63649495796,2.90869717583,0.)) ;
#382=CARTESIAN_POINT('Control Point',(7.53319013556,2.83828948461,0.)) ;
#383=CARTESIAN_POINT('Control Point',(6.45156776576,3.06703313811,0.)) ;
#384=CARTESIAN_POINT('Control Point',(5.92960970129,3.25531585949,0.)) ;
#385=CARTESIAN_POINT('Control Point',(4.95103473004,3.76973769637,0.)) ;
#386=CARTESIAN_POINT('Control Point',(4.14674924182,4.528259596,0.)) ;
#387=CARTESIAN_POINT('Control Point',(3.79918978999,4.96080209761,0.)) ;
#388=CARTESIAN_POINT('Control Point',(3.30658851271,5.78426449852,0.)) ;
#389=CARTESIAN_POINT('Control Point',(3.02183462622,6.6963437459,0.)) ;
#390=CARTESIAN_POINT('Control Point',(2.94060629723,7.09396019487,0.)) ;
#391=CARTESIAN_POINT('Control Point',(2.9,7.49697991907,0.)) ;
#392=CARTESIAN_POINT('Control Point',(2.9,7.9,0.)) ;
#400=CARTESIAN_POINT('Axis2P3D Location',(7.9,7.9,163.35)) ;
#405=CARTESIAN_POINT('Axis2P3D Location',(7.9,7.9,16.5000000004)) ;
#409=CARTESIAN_POINT('Vertex',(12.9,7.90000000037,16.5000000004)) ;
#411=CARTESIAN_POINT('Vertex',(2.9,7.9,16.5000000004)) ;
#414=CARTESIAN_POINT('Line Origine',(2.9,7.9,163.35)) ;
#419=CARTESIAN_POINT('Line Origine',(12.9,7.9,163.35)) ;
#432=CARTESIAN_POINT('Axis2P3D Location',(7.9,7.9,16.5000000004)) ;
#33=DIRECTION('Axis2P3D Direction',(0.,0.,-1.)) ;
#34=DIRECTION('Axis2P3D XDirection',(-1.,-4.4408920985E-16,0.)) ;
#38=DIRECTION('Vector Direction',(0.,0.,-1.)) ;
#47=DIRECTION('Axis2P3D Direction',(0.,0.,-1.)) ;
#54=DIRECTION('Vector Direction',(0.,0.,-1.)) ;
#61=DIRECTION('Axis2P3D Direction',(0.,0.,-1.)) ;
#68=DIRECTION('Axis2P3D Direction',(0.,0.,-1.)) ;
#89=DIRECTION('Axis2P3D Direction',(0.,0.,-1.)) ;
#94=DIRECTION('Axis2P3D Direction',(0.,0.,-1.)) ;
#101=DIRECTION('Axis2P3D Direction',(0.,0.,-1.)) ;
#115=DIRECTION('Axis2P3D Direction',(0.,0.,1.)) ;
#116=DIRECTION('Axis2P3D XDirection',(1.,0.,0.)) ;
#186=DIRECTION('Axis2P3D Direction',(0.,0.,-1.)) ;
#187=DIRECTION('Axis2P3D XDirection',(1.,2.83491356432E-16,0.)) ;
#191=DIRECTION('Axis2P3D Direction',(-2.83491356432E-16,1.,0.)) ;
#198=DIRECTION('Axis2P3D Direction',(1.,3.44723696389E-16,0.)) ;
#210=DIRECTION('Axis2P3D Direction',(-0.,0.,-1.)) ;
#211=DIRECTION('Axis2P3D XDirection',(-1.,-4.11062466826E-16,0.)) ;
#215=DIRECTION('Axis2P3D Direction',(4.11062466826E-16,-1.,0.)) ;
#227=DIRECTION('Axis2P3D Direction',(-1.,-4.72294806783E-16,-0.)) ;
#246=DIRECTION('Axis2P3D Direction',(0.,0.,-1.)) ;
#247=DIRECTION('Axis2P3D XDirection',(-1.,-2.64687485605E-28,-0.)) ;
#251=DIRECTION('Vector Direction',(0.,0.,-1.)) ;
#258=DIRECTION('Axis2P3D Direction',(0.,0.,-1.)) ;
#265=DIRECTION('Vector Direction',(0.,0.,-1.)) ;
#278=DIRECTION('Axis2P3D Direction',(0.,0.,-1.)) ;
#291=DIRECTION('Axis2P3D Direction',(0.,0.,1.)) ;
#292=DIRECTION('Axis2P3D XDirection',(1.,0.,0.)) ;
#296=DIRECTION('Vector Direction',(0.196116134917,-4.8034658912E-17,0.980580675735)) ;
#303=DIRECTION('Vector Direction',(-0.196116134917,2.4017329456E-17,0.980580675735)) ;
#310=DIRECTION('Axis2P3D Direction',(0.,0.,1.)) ;
#323=DIRECTION('Axis2P3D Direction',(0.,0.,1.)) ;
#336=DIRECTION('Axis2P3D Direction',(0.,0.,1.)) ;
#337=DIRECTION('Axis2P3D XDirection',(1.,0.,0.)) ;
#401=DIRECTION('Axis2P3D Direction',(0.,0.,-1.)) ;
#402=DIRECTION('Axis2P3D XDirection',(-1.,-7.1054273576E-16,0.)) ;
#406=DIRECTION('Axis2P3D Direction',(0.,0.,-1.)) ;
#415=DIRECTION('Vector Direction',(0.,0.,-1.)) ;
#420=DIRECTION('Vector Direction',(0.,0.,-1.)) ;
#433=DIRECTION('Axis2P3D Direction',(0.,0.,-1.)) ;
#30=PRESENTATION_LAYER_ASSIGNMENT('1',' ',(#21)) ;
#8=PRODUCT_RELATED_PRODUCT_CATEGORY('part',$,(#5)) ;
#7=PRODUCT_CATEGORY('part','specification') ;
#29=STYLED_ITEM(' ',(#28),#21) ;
#28=PRESENTATION_STYLE_ASSIGNMENT((#27)) ;
#86=PRESENTATION_STYLE_ASSIGNMENT((#85)) ;
#27=SURFACE_STYLE_USAGE(.BOTH.,#26) ;
#85=SURFACE_STYLE_USAGE(.BOTH.,#84) ;
#26=SURFACE_SIDE_STYLE(' ',(#25)) ;
#84=SURFACE_SIDE_STYLE(' ',(#83)) ;
#25=SURFACE_STYLE_FILL_AREA(#24) ;
#83=SURFACE_STYLE_FILL_AREA(#82) ;
#24=FILL_AREA_STYLE(' ',(#23)) ;
#82=FILL_AREA_STYLE(' ',(#81)) ;
#23=FILL_AREA_STYLE_COLOUR(' ',#22) ;
#81=FILL_AREA_STYLE_COLOUR(' ',#80) ;
#39=VECTOR('Line Direction',#38,1.) ;
#55=VECTOR('Line Direction',#54,1.) ;
#252=VECTOR('Line Direction',#251,1.) ;
#266=VECTOR('Line Direction',#265,1.) ;
#297=VECTOR('Line Direction',#296,1.) ;
#304=VECTOR('Line Direction',#303,1.) ;
#416=VECTOR('Line Direction',#415,1.) ;
#421=VECTOR('Line Direction',#420,1.) ;
#15=UNCERTAINTY_MEASURE_WITH_UNIT(LENGTH_MEASURE(0.005),#12,'distance_accuracy_value','CONFUSED CURVE UNCERTAINTY') ;
#452=SHAPE_REPRESENTATION_RELATIONSHIP(' ',' ',#19,#451) ;
#73=ORIENTED_EDGE('',*,*,#45,.F.) ;
#74=ORIENTED_EDGE('',*,*,#52,.F.) ;
#75=ORIENTED_EDGE('',*,*,#59,.F.) ;
#76=ORIENTED_EDGE('',*,*,#66,.T.) ;
#77=ORIENTED_EDGE('',*,*,#71,.T.) ;
#106=ORIENTED_EDGE('',*,*,#59,.T.) ;
#107=ORIENTED_EDGE('',*,*,#92,.F.) ;
#108=ORIENTED_EDGE('',*,*,#45,.T.) ;
#109=ORIENTED_EDGE('',*,*,#99,.T.) ;
#110=ORIENTED_EDGE('',*,*,#104,.T.) ;
#120=ORIENTED_EDGE('',*,*,#92,.T.) ;
#121=ORIENTED_EDGE('',*,*,#52,.T.) ;
#180=ORIENTED_EDGE('',*,*,#152,.F.) ;
#181=ORIENTED_EDGE('',*,*,#178,.F.) ;
#203=ORIENTED_EDGE('',*,*,#196,.F.) ;
#204=ORIENTED_EDGE('',*,*,#201,.T.) ;
#205=ORIENTED_EDGE('',*,*,#66,.F.) ;
#220=ORIENTED_EDGE('',*,*,#218,.T.) ;
#221=ORIENTED_EDGE('',*,*,#71,.F.) ;
#222=ORIENTED_EDGE('',*,*,#201,.F.) ;
#232=ORIENTED_EDGE('',*,*,#99,.F.) ;
#233=ORIENTED_EDGE('',*,*,#218,.F.) ;
#234=ORIENTED_EDGE('',*,*,#230,.T.) ;
#239=ORIENTED_EDGE('',*,*,#196,.T.) ;
#240=ORIENTED_EDGE('',*,*,#104,.F.) ;
#241=ORIENTED_EDGE('',*,*,#230,.F.) ;
#270=ORIENTED_EDGE('',*,*,#256,.F.) ;
#271=ORIENTED_EDGE('',*,*,#263,.T.) ;
#272=ORIENTED_EDGE('',*,*,#268,.F.) ;
#273=ORIENTED_EDGE('',*,*,#152,.T.) ;
#283=ORIENTED_EDGE('',*,*,#268,.T.) ;
#284=ORIENTED_EDGE('',*,*,#281,.T.) ;
#285=ORIENTED_EDGE('',*,*,#256,.T.) ;
#286=ORIENTED_EDGE('',*,*,#178,.T.) ;
#315=ORIENTED_EDGE('',*,*,#301,.F.) ;
#316=ORIENTED_EDGE('',*,*,#263,.F.) ;
#317=ORIENTED_EDGE('',*,*,#308,.F.) ;
#318=ORIENTED_EDGE('',*,*,#313,.F.) ;
#328=ORIENTED_EDGE('',*,*,#308,.T.) ;
#329=ORIENTED_EDGE('',*,*,#281,.F.) ;
#330=ORIENTED_EDGE('',*,*,#301,.T.) ;
#331=ORIENTED_EDGE('',*,*,#326,.F.) ;
#341=ORIENTED_EDGE('',*,*,#313,.T.) ;
#342=ORIENTED_EDGE('',*,*,#326,.T.) ;
#395=ORIENTED_EDGE('',*,*,#370,.F.) ;
#396=ORIENTED_EDGE('',*,*,#393,.F.) ;
#425=ORIENTED_EDGE('',*,*,#413,.T.) ;
#426=ORIENTED_EDGE('',*,*,#418,.F.) ;
#427=ORIENTED_EDGE('',*,*,#370,.T.) ;
#428=ORIENTED_EDGE('',*,*,#423,.F.) ;
#438=ORIENTED_EDGE('',*,*,#436,.T.) ;
#439=ORIENTED_EDGE('',*,*,#423,.T.) ;
#440=ORIENTED_EDGE('',*,*,#393,.T.) ;
#441=ORIENTED_EDGE('',*,*,#418,.T.) ;
#446=ORIENTED_EDGE('',*,*,#436,.F.) ;
#447=ORIENTED_EDGE('',*,*,#413,.F.) ;
#182=FACE_BOUND('',#179,.T.) ;
#397=FACE_BOUND('',#394,.T.) ;
#31=CLOSED_SHELL('Closed Shell',(#79,#112,#183,#207,#224,#236,#243,#275,#288,#320,#333,#398,#430,#443,#449)) ;
#451=ADVANCED_BREP_SHAPE_REPRESENTATION('NONE',(#21),#16) ;
#79=ADVANCED_FACE('CABTITE BP 14MM PA',(#78),#36,.T.) ;
#112=ADVANCED_FACE('CABTITE BP 14MM PA',(#111),#36,.T.) ;
#183=ADVANCED_FACE('CABTITE BP 14MM PA',(#122,#182),#118,.F.) ;
#207=ADVANCED_FACE('CABTITE BP 14MM PA',(#206),#189,.T.) ;
#224=ADVANCED_FACE('CABTITE BP 14MM PA',(#223),#213,.T.) ;
#236=ADVANCED_FACE('CABTITE BP 14MM PA',(#235),#213,.T.) ;
#243=ADVANCED_FACE('CABTITE BP 14MM PA',(#242),#213,.T.) ;
#275=ADVANCED_FACE('CABTITE BP 14MM PA',(#274),#249,.T.) ;
#288=ADVANCED_FACE('CABTITE BP 14MM PA',(#287),#249,.T.) ;
#320=ADVANCED_FACE('CABTITE BP 14MM PA',(#319),#294,.T.) ;
#333=ADVANCED_FACE('CABTITE BP 14MM PA',(#332),#294,.T.) ;
#398=ADVANCED_FACE('CABTITE BP 14MM PA',(#343,#397),#339,.F.) ;
#430=ADVANCED_FACE('CABTITE BP 14MM PA',(#429),#404,.F.) ;
#443=ADVANCED_FACE('CABTITE BP 14MM PA',(#442),#404,.F.) ;
#449=ADVANCED_FACE('CABTITE BP 14MM PA',(#448),#118,.F.) ;
#4=APPLICATION_PROTOCOL_DEFINITION('international standard','automotive_design',2001,#1) ;
#123=B_SPLINE_CURVE_WITH_KNOTS('',5,(#124,#125,#126,#127,#128,#129,#130,#131,#132,#133,#134,#135,#136,#137,#138,#139,#140,#141,#142,#143,#144,#145,#146,#147),.UNSPECIFIED.,.F.,.U.,(6,3,3,3,3,3,3,6),(0.,4.59219676906,9.18439349403,13.7765902425,18.3687870229,22.9609838012,27.5531805667,31.1658801855),.UNSPECIFIED.) ;
#153=B_SPLINE_CURVE_WITH_KNOTS('',5,(#154,#155,#156,#157,#158,#159,#160,#161,#162,#163,#164,#165,#166,#167,#168,#169,#170,#171,#172,#173,#174,#175,#176,#177),.UNSPECIFIED.,.F.,.U.,(6,3,3,3,3,3,3,6),(0.,4.59219678073,9.1843935681,13.7765903637,18.368787119,22.9609838456,27.5531806031,31.1658802147),.UNSPECIFIED.) ;
#344=B_SPLINE_CURVE_WITH_KNOTS('',5,(#345,#346,#347,#348,#349,#350,#351,#352,#353,#354,#355,#356,#357,#358,#359,#360,#361,#362,#363,#364,#365),.UNSPECIFIED.,.F.,.U.,(6,3,3,3,3,3,6),(0.,3.88412012318,7.76824026541,11.6523604267,15.5364806135,19.4206008255,22.2788823127),.UNSPECIFIED.) ;
#371=B_SPLINE_CURVE_WITH_KNOTS('',5,(#372,#373,#374,#375,#376,#377,#378,#379,#380,#381,#382,#383,#384,#385,#386,#387,#388,#389,#390,#391,#392),.UNSPECIFIED.,.F.,.U.,(6,3,3,3,3,3,6),(0.,3.8841201229,7.76824026533,11.6523604274,15.5364806151,19.4206008273,22.2788823147),.UNSPECIFIED.) ;
#21=MANIFOLD_SOLID_BREP('CABTITE BP 14MM PA',#31) ;
#49=CIRCLE('generated circle',#48,7.9) ;
#63=CIRCLE('generated circle',#62,7.9) ;
#70=CIRCLE('generated circle',#69,7.9) ;
#91=CIRCLE('generated circle',#90,7.9) ;
#96=CIRCLE('generated circle',#95,7.9) ;
#103=CIRCLE('generated circle',#102,7.9) ;
#193=CIRCLE('generated circle',#192,62.66) ;
#200=CIRCLE('generated circle',#199,62.66) ;
#217=CIRCLE('generated circle',#216,62.66) ;
#229=CIRCLE('generated circle',#228,62.66) ;
#260=CIRCLE('generated circle',#259,7.) ;
#280=CIRCLE('generated circle',#279,7.) ;
#312=CIRCLE('generated circle',#311,6.6) ;
#325=CIRCLE('generated circle',#324,6.6) ;
#408=CIRCLE('generated circle',#407,5.) ;
#435=CIRCLE('generated circle',#434,5.) ;
#22=COLOUR_RGB('Colour',0.823529411765,0.823529411765,1.) ;
#80=COLOUR_RGB('Colour',0.964705882353,0.937254901961,0.894117647059) ;
#294=CONICAL_SURFACE('Cone',#293,6.6,0.197395559624) ;
#87=OVER_RIDING_STYLED_ITEM(' ',(#86),#79,#29) ;
#113=OVER_RIDING_STYLED_ITEM(' ',(#86),#112,#29) ;
#184=OVER_RIDING_STYLED_ITEM(' ',(#86),#183,#29) ;
#208=OVER_RIDING_STYLED_ITEM(' ',(#86),#207,#29) ;
#225=OVER_RIDING_STYLED_ITEM(' ',(#86),#224,#29) ;
#237=OVER_RIDING_STYLED_ITEM(' ',(#86),#236,#29) ;
#244=OVER_RIDING_STYLED_ITEM(' ',(#86),#243,#29) ;
#276=OVER_RIDING_STYLED_ITEM(' ',(#86),#275,#29) ;
#289=OVER_RIDING_STYLED_ITEM(' ',(#86),#288,#29) ;
#321=OVER_RIDING_STYLED_ITEM(' ',(#86),#320,#29) ;
#334=OVER_RIDING_STYLED_ITEM(' ',(#86),#333,#29) ;
#399=OVER_RIDING_STYLED_ITEM(' ',(#86),#398,#29) ;
#431=OVER_RIDING_STYLED_ITEM(' ',(#86),#430,#29) ;
#444=OVER_RIDING_STYLED_ITEM(' ',(#86),#443,#29) ;
#450=OVER_RIDING_STYLED_ITEM(' ',(#86),#449,#29) ;
#36=CYLINDRICAL_SURFACE('generated cylinder',#35,7.9) ;
#249=CYLINDRICAL_SURFACE('generated cylinder',#248,7.) ;
#404=CYLINDRICAL_SURFACE('generated cylinder',#403,5.) ;
#45=EDGE_CURVE('',#42,#44,#40,.F.) ;
#52=EDGE_CURVE('',#51,#42,#49,.T.) ;
#59=EDGE_CURVE('',#58,#51,#56,.T.) ;
#66=EDGE_CURVE('',#58,#65,#63,.T.) ;
#71=EDGE_CURVE('',#65,#44,#70,.T.) ;
#92=EDGE_CURVE('',#42,#51,#91,.T.) ;
#99=EDGE_CURVE('',#44,#98,#96,.T.) ;
#104=EDGE_CURVE('',#98,#58,#103,.T.) ;
#152=EDGE_CURVE('',#149,#151,#123,.T.) ;
#178=EDGE_CURVE('',#151,#149,#153,.T.) ;
#196=EDGE_CURVE('',#195,#58,#193,.T.) ;
#201=EDGE_CURVE('',#195,#65,#200,.T.) ;
#218=EDGE_CURVE('',#195,#44,#217,.T.) ;
#230=EDGE_CURVE('',#195,#98,#229,.T.) ;
#256=EDGE_CURVE('',#255,#151,#253,.F.) ;
#263=EDGE_CURVE('',#255,#262,#260,.F.) ;
#268=EDGE_CURVE('',#149,#262,#267,.T.) ;
#281=EDGE_CURVE('',#262,#255,#280,.F.) ;
#301=EDGE_CURVE('',#262,#300,#298,.F.) ;
#308=EDGE_CURVE('',#307,#255,#305,.T.) ;
#313=EDGE_CURVE('',#300,#307,#312,.F.) ;
#326=EDGE_CURVE('',#307,#300,#325,.F.) ;
#370=EDGE_CURVE('',#367,#369,#344,.T.) ;
#393=EDGE_CURVE('',#369,#367,#371,.T.) ;
#413=EDGE_CURVE('',#410,#412,#408,.F.) ;
#418=EDGE_CURVE('',#367,#412,#417,.F.) ;
#423=EDGE_CURVE('',#410,#369,#422,.T.) ;
#436=EDGE_CURVE('',#412,#410,#435,.F.) ;
#72=EDGE_LOOP('',(#73,#74,#75,#76,#77)) ;
#105=EDGE_LOOP('',(#106,#107,#108,#109,#110)) ;
#119=EDGE_LOOP('',(#120,#121)) ;
#179=EDGE_LOOP('',(#180,#181)) ;
#202=EDGE_LOOP('',(#203,#204,#205)) ;
#219=EDGE_LOOP('',(#220,#221,#222)) ;
#231=EDGE_LOOP('',(#232,#233,#234)) ;
#238=EDGE_LOOP('',(#239,#240,#241)) ;
#269=EDGE_LOOP('',(#270,#271,#272,#273)) ;
#282=EDGE_LOOP('',(#283,#284,#285,#286)) ;
#314=EDGE_LOOP('',(#315,#316,#317,#318)) ;
#327=EDGE_LOOP('',(#328,#329,#330,#331)) ;
#340=EDGE_LOOP('',(#341,#342)) ;
#394=EDGE_LOOP('',(#395,#396)) ;
#424=EDGE_LOOP('',(#425,#426,#427,#428)) ;
#437=EDGE_LOOP('',(#438,#439,#440,#441)) ;
#445=EDGE_LOOP('',(#446,#447)) ;
#78=FACE_OUTER_BOUND('',#72,.T.) ;
#111=FACE_OUTER_BOUND('',#105,.T.) ;
#122=FACE_OUTER_BOUND('',#119,.T.) ;
#206=FACE_OUTER_BOUND('',#202,.T.) ;
#223=FACE_OUTER_BOUND('',#219,.T.) ;
#235=FACE_OUTER_BOUND('',#231,.T.) ;
#242=FACE_OUTER_BOUND('',#238,.T.) ;
#274=FACE_OUTER_BOUND('',#269,.T.) ;
#287=FACE_OUTER_BOUND('',#282,.T.) ;
#319=FACE_OUTER_BOUND('',#314,.T.) ;
#332=FACE_OUTER_BOUND('',#327,.T.) ;
#343=FACE_OUTER_BOUND('',#340,.T.) ;
#429=FACE_OUTER_BOUND('',#424,.T.) ;
#442=FACE_OUTER_BOUND('',#437,.T.) ;
#448=FACE_OUTER_BOUND('',#445,.T.) ;
#40=LINE('Line',#37,#39) ;
#56=LINE('Line',#53,#55) ;
#253=LINE('Line',#250,#252) ;
#267=LINE('Line',#264,#266) ;
#298=LINE('Line',#295,#297) ;
#305=LINE('Line',#302,#304) ;
#417=LINE('Line',#414,#416) ;
#422=LINE('Line',#419,#421) ;
#118=PLANE('',#117) ;
#339=PLANE('',#338) ;
#9=PRODUCT_CATEGORY_RELATIONSHIP(' ',' ',#7,#8) ;
#6=PRODUCT_DEFINITION_FORMATION_WITH_SPECIFIED_SOURCE(' ',' ',#5,.NOT_KNOWN.) ;
#20=SHAPE_DEFINITION_REPRESENTATION(#11,#19) ;
#189=SPHERICAL_SURFACE('',#188,62.66) ;
#213=SPHERICAL_SURFACE('',#212,62.66) ;
#42=VERTEX_POINT('',#41) ;
#44=VERTEX_POINT('',#43) ;
#51=VERTEX_POINT('',#50) ;
#58=VERTEX_POINT('',#57) ;
#65=VERTEX_POINT('',#64) ;
#98=VERTEX_POINT('',#97) ;
#149=VERTEX_POINT('',#148) ;
#151=VERTEX_POINT('',#150) ;
#195=VERTEX_POINT('',#194) ;
#255=VERTEX_POINT('',#254) ;
#262=VERTEX_POINT('',#261) ;
#300=VERTEX_POINT('',#299) ;
#307=VERTEX_POINT('',#306) ;
#367=VERTEX_POINT('',#366) ;
#369=VERTEX_POINT('',#368) ;
#410=VERTEX_POINT('',#409) ;
#412=VERTEX_POINT('',#411) ;
#12=(LENGTH_UNIT()NAMED_UNIT(*)SI_UNIT(.MILLI.,.METRE.)) ;
#13=(NAMED_UNIT(*)PLANE_ANGLE_UNIT()SI_UNIT($,.RADIAN.)) ;
#14=(NAMED_UNIT(*)SI_UNIT($,.STERADIAN.)SOLID_ANGLE_UNIT()) ;
#16=(GEOMETRIC_REPRESENTATION_CONTEXT(3)GLOBAL_UNCERTAINTY_ASSIGNED_CONTEXT((#15))GLOBAL_UNIT_ASSIGNED_CONTEXT((#12,#13,#14))REPRESENTATION_CONTEXT(' ',' ')) ;
ENDSEC;
END-ISO-10303-21;
