ISO-10303-21;
HEADER;
FILE_DESCRIPTION(('CATIA V5R19 STEP'),'2;1');

FILE_NAME ('D1455813_0_1773551689_1773551689.stp','2014-12-05T12:58:53+00:00',('none'),('Weidmueller'),'CATIA Version 5 Release 20 SP 5 (IN-10)','CATIA V5 STEP AP214','none');

FILE_SCHEMA(('AUTOMOTIVE_DESIGN { 1 0 10303 214 1 1 1 1 }'));

ENDSEC;
/* file written by CATIA V5R20 */
DATA;
#5=PRODUCT('WS 12/6','','',(#2)) ;
#2=PRODUCT_CONTEXT(' ',#1,'mechanical') ;
#1=APPLICATION_CONTEXT('automotive design') ;
#10=PRODUCT_DEFINITION('',' ',#6,#3) ;
#3=PRODUCT_DEFINITION_CONTEXT('part definition',#1,' ') ;
#11=PRODUCT_DEFINITION_SHAPE(' ',' ',#10) ;
#574=MECHANICAL_DESIGN_GEOMETRIC_PRESENTATION_REPRESENTATION(' ',(#30),#17) ;
#20=SHAPE_REPRESENTATION(' ',(#19),#17) ;
#19=AXIS2_PLACEMENT_3D(' ',#18,$,$) ;
#36=AXIS2_PLACEMENT_3D('Plane Axis2P3D',#33,#34,#35) ;
#110=AXIS2_PLACEMENT_3D('Plane Axis2P3D',#107,#108,#109) ;
#141=AXIS2_PLACEMENT_3D('Plane Axis2P3D',#138,#139,#140) ;
#165=AXIS2_PLACEMENT_3D('Plane Axis2P3D',#162,#163,#164) ;
#189=AXIS2_PLACEMENT_3D('Plane Axis2P3D',#186,#187,#188) ;
#206=AXIS2_PLACEMENT_3D('Plane Axis2P3D',#203,#204,#205) ;
#237=AXIS2_PLACEMENT_3D('Plane Axis2P3D',#234,#235,#236) ;
#325=AXIS2_PLACEMENT_3D('Plane Axis2P3D',#322,#323,#324) ;
#349=AXIS2_PLACEMENT_3D('Plane Axis2P3D',#346,#347,#348) ;
#430=AXIS2_PLACEMENT_3D('Plane Axis2P3D',#427,#428,#429) ;
#442=AXIS2_PLACEMENT_3D('Plane Axis2P3D',#439,#440,#441) ;
#459=AXIS2_PLACEMENT_3D('Plane Axis2P3D',#456,#457,#458) ;
#476=AXIS2_PLACEMENT_3D('Plane Axis2P3D',#473,#474,#475) ;
#493=AXIS2_PLACEMENT_3D('Plane Axis2P3D',#490,#491,#492) ;
#522=AXIS2_PLACEMENT_3D('Plane Axis2P3D',#519,#520,#521) ;
#551=AXIS2_PLACEMENT_3D('Plane Axis2P3D',#548,#549,#550) ;
#18=CARTESIAN_POINT(' ',(0.,0.,0.)) ;
#33=CARTESIAN_POINT('Axis2P3D Location',(2.925,12.,2.335)) ;
#38=CARTESIAN_POINT('Line Origine',(-7.45058237328E-010,6.,2.335)) ;
#42=CARTESIAN_POINT('Vertex',(-7.45058237328E-010,0.,2.335)) ;
#44=CARTESIAN_POINT('Vertex',(-7.45058237328E-010,12.,2.335)) ;
#47=CARTESIAN_POINT('Line Origine',(2.925,12.,2.335)) ;
#51=CARTESIAN_POINT('Vertex',(5.85000000075,12.,2.335)) ;
#54=CARTESIAN_POINT('Line Origine',(5.85000000075,6.,2.335)) ;
#58=CARTESIAN_POINT('Vertex',(5.85000000075,0.,2.335)) ;
#61=CARTESIAN_POINT('Line Origine',(2.925,0.,2.335)) ;
#72=CARTESIAN_POINT('Line Origine',(2.925,3.,2.335)) ;
#76=CARTESIAN_POINT('Vertex',(4.85000000075,3.,2.335)) ;
#78=CARTESIAN_POINT('Vertex',(0.999999999255,3.,2.335)) ;
#81=CARTESIAN_POINT('Line Origine',(4.85000000075,6.,2.335)) ;
#85=CARTESIAN_POINT('Vertex',(4.85000000075,9.,2.335)) ;
#88=CARTESIAN_POINT('Line Origine',(2.925,9.,2.335)) ;
#92=CARTESIAN_POINT('Vertex',(0.999999999255,9.,2.335)) ;
#95=CARTESIAN_POINT('Line Origine',(0.999999999255,6.,2.335)) ;
#107=CARTESIAN_POINT('Axis2P3D Location',(0.,0.,3.135)) ;
#112=CARTESIAN_POINT('Line Origine',(0.,0.,2.73499999963)) ;
#116=CARTESIAN_POINT('Vertex',(0.,0.,3.135)) ;
#119=CARTESIAN_POINT('Line Origine',(0.,6.,3.135)) ;
#123=CARTESIAN_POINT('Vertex',(0.,12.,3.135)) ;
#126=CARTESIAN_POINT('Line Origine',(0.,12.,2.73499999963)) ;
#138=CARTESIAN_POINT('Axis2P3D Location',(2.925,12.,3.135)) ;
#143=CARTESIAN_POINT('Line Origine',(2.925,12.,3.135)) ;
#147=CARTESIAN_POINT('Vertex',(5.85000000075,12.,3.135)) ;
#150=CARTESIAN_POINT('Line Origine',(5.85000000075,12.,2.73499999963)) ;
#162=CARTESIAN_POINT('Axis2P3D Location',(5.85,0.,3.135)) ;
#167=CARTESIAN_POINT('Line Origine',(5.85,6.,3.135)) ;
#171=CARTESIAN_POINT('Vertex',(5.85,0.,3.135)) ;
#174=CARTESIAN_POINT('Line Origine',(5.85,0.,2.73499999963)) ;
#186=CARTESIAN_POINT('Axis2P3D Location',(2.925,0.,2.335)) ;
#191=CARTESIAN_POINT('Line Origine',(2.925,0.,3.13500000075)) ;
#203=CARTESIAN_POINT('Axis2P3D Location',(2.925,3.,2.335)) ;
#208=CARTESIAN_POINT('Line Origine',(2.925,3.,1.78499999925)) ;
#212=CARTESIAN_POINT('Vertex',(4.85000000075,3.,1.78499999925)) ;
#214=CARTESIAN_POINT('Vertex',(0.999999999255,3.,1.78499999925)) ;
#217=CARTESIAN_POINT('Line Origine',(4.85000000075,3.,2.05999999963)) ;
#222=CARTESIAN_POINT('Line Origine',(0.999999999255,3.,2.05999999963)) ;
#234=CARTESIAN_POINT('Axis2P3D Location',(4.85,0.,3.135)) ;
#239=CARTESIAN_POINT('Line Origine',(4.85,9.,2.05999999981)) ;
#243=CARTESIAN_POINT('Vertex',(4.85000000075,9.,1.785)) ;
#246=CARTESIAN_POINT('Line Origine',(4.85,3.39250000007,1.78500000037)) ;
#250=CARTESIAN_POINT('Vertex',(4.85000000075,3.78500000015,1.785)) ;
#253=CARTESIAN_POINT('Line Origine',(4.85,3.78500000015,0.892500000298)) ;
#257=CARTESIAN_POINT('Vertex',(4.85000000075,3.785,-1.49011691875E-010)) ;
#260=CARTESIAN_POINT('Line Origine',(4.85,4.12546427362,2.23517204745E-010)) ;
#264=CARTESIAN_POINT('Vertex',(4.85000000075,4.46592854642,-2.94796187461E-010)) ;
#267=CARTESIAN_POINT('Line Origine',(4.85,4.65091886837,0.892500000298)) ;
#271=CARTESIAN_POINT('Vertex',(4.85000000075,4.83590918966,1.785)) ;
#274=CARTESIAN_POINT('Line Origine',(4.85,6.,1.78500000037)) ;
#278=CARTESIAN_POINT('Vertex',(4.85000000075,7.16409081034,1.785)) ;
#281=CARTESIAN_POINT('Line Origine',(4.85,7.34908113163,0.892500000298)) ;
#285=CARTESIAN_POINT('Vertex',(4.85000000075,7.53407145358,-3.04796188288E-010)) ;
#288=CARTESIAN_POINT('Line Origine',(4.85,7.87453572638,2.23517204745E-010)) ;
#292=CARTESIAN_POINT('Vertex',(4.85000000075,8.215,-1.49011691875E-010)) ;
#295=CARTESIAN_POINT('Line Origine',(4.85,8.21499999985,0.892500000298)) ;
#299=CARTESIAN_POINT('Vertex',(4.85000000075,8.21499999985,1.785)) ;
#302=CARTESIAN_POINT('Line Origine',(4.85,8.60749999993,1.78500000037)) ;
#322=CARTESIAN_POINT('Axis2P3D Location',(2.925,9.,1.785)) ;
#327=CARTESIAN_POINT('Line Origine',(2.925,9.,1.785)) ;
#331=CARTESIAN_POINT('Vertex',(0.999999999255,9.,1.785)) ;
#334=CARTESIAN_POINT('Line Origine',(0.999999999255,9.,2.06000000037)) ;
#346=CARTESIAN_POINT('Axis2P3D Location',(1.,0.,3.135)) ;
#351=CARTESIAN_POINT('Line Origine',(1.,8.60749999993,1.78500000037)) ;
#355=CARTESIAN_POINT('Vertex',(0.999999999255,8.21499999985,1.785)) ;
#358=CARTESIAN_POINT('Line Origine',(1.,8.21499999985,0.892500000298)) ;
#362=CARTESIAN_POINT('Vertex',(0.999999999255,8.215,-1.49011691875E-010)) ;
#365=CARTESIAN_POINT('Line Origine',(1.,7.87453572638,2.23517204745E-010)) ;
#369=CARTESIAN_POINT('Vertex',(0.999999999255,7.53407145358,-3.04796188288E-010)) ;
#372=CARTESIAN_POINT('Line Origine',(1.,7.349081113,0.892500089705)) ;
#376=CARTESIAN_POINT('Vertex',(0.999999999255,7.16409077309,1.785)) ;
#379=CARTESIAN_POINT('Line Origine',(1.,6.,1.78500017919)) ;
#383=CARTESIAN_POINT('Vertex',(0.999999999255,4.83590922691,1.785)) ;
#386=CARTESIAN_POINT('Line Origine',(1.,4.650918887,0.892500089705)) ;
#390=CARTESIAN_POINT('Vertex',(0.999999999255,4.46592854642,-2.94796187461E-010)) ;
#393=CARTESIAN_POINT('Line Origine',(1.,4.12546427362,2.23517204745E-010)) ;
#397=CARTESIAN_POINT('Vertex',(0.999999999255,3.785,-1.49011691875E-010)) ;
#400=CARTESIAN_POINT('Line Origine',(1.,3.78500000015,0.892500000298)) ;
#404=CARTESIAN_POINT('Vertex',(0.999999999255,3.78500000015,1.785)) ;
#407=CARTESIAN_POINT('Line Origine',(1.,3.39250000007,1.78500000037)) ;
#427=CARTESIAN_POINT('Axis2P3D Location',(2.925,0.,3.135)) ;
#439=CARTESIAN_POINT('Axis2P3D Location',(2.925,3.,1.785)) ;
#444=CARTESIAN_POINT('Line Origine',(2.925,3.78500000015,1.785)) ;
#456=CARTESIAN_POINT('Axis2P3D Location',(2.925,3.785,1.785)) ;
#461=CARTESIAN_POINT('Line Origine',(2.925,3.785,-1.49011691875E-010)) ;
#473=CARTESIAN_POINT('Axis2P3D Location',(2.925,3.785,1.7763568394E-015)) ;
#478=CARTESIAN_POINT('Line Origine',(2.925,4.46592854694,1.7763568394E-015)) ;
#490=CARTESIAN_POINT('Axis2P3D Location',(2.925,4.83590922662,1.78500017837)) ;
#495=CARTESIAN_POINT('Line Origine',(2.925,4.8359092081,1.785000089)) ;
#507=CARTESIAN_POINT('Line Origine',(2.925,7.16409079172,1.785)) ;
#519=CARTESIAN_POINT('Axis2P3D Location',(2.925,7.16409077338,1.78500017836)) ;
#524=CARTESIAN_POINT('Line Origine',(2.925,7.53407145358,-3.04796188288E-010)) ;
#536=CARTESIAN_POINT('Line Origine',(2.925,8.2149999997,1.7763568394E-015)) ;
#548=CARTESIAN_POINT('Axis2P3D Location',(2.925,8.215,1.785)) ;
#553=CARTESIAN_POINT('Line Origine',(2.925,8.215,1.785)) ;
#34=DIRECTION('Axis2P3D Direction',(-0.,-0.,-1.)) ;
#35=DIRECTION('Axis2P3D XDirection',(0.,-1.,0.)) ;
#39=DIRECTION('Vector Direction',(0.,-1.,0.)) ;
#48=DIRECTION('Vector Direction',(-1.,0.,0.)) ;
#55=DIRECTION('Vector Direction',(0.,-1.,0.)) ;
#62=DIRECTION('Vector Direction',(-1.,0.,0.)) ;
#73=DIRECTION('Vector Direction',(-1.,0.,0.)) ;
#82=DIRECTION('Vector Direction',(0.,-1.,0.)) ;
#89=DIRECTION('Vector Direction',(-1.,0.,0.)) ;
#96=DIRECTION('Vector Direction',(0.,-1.,0.)) ;
#108=DIRECTION('Axis2P3D Direction',(1.,0.,0.)) ;
#109=DIRECTION('Axis2P3D XDirection',(0.,1.,0.)) ;
#113=DIRECTION('Vector Direction',(0.,0.,1.)) ;
#120=DIRECTION('Vector Direction',(0.,1.,0.)) ;
#127=DIRECTION('Vector Direction',(0.,0.,-1.)) ;
#139=DIRECTION('Axis2P3D Direction',(0.,1.,0.)) ;
#140=DIRECTION('Axis2P3D XDirection',(0.,0.,-1.)) ;
#144=DIRECTION('Vector Direction',(-1.,0.,0.)) ;
#151=DIRECTION('Vector Direction',(0.,0.,-1.)) ;
#163=DIRECTION('Axis2P3D Direction',(1.,0.,0.)) ;
#164=DIRECTION('Axis2P3D XDirection',(0.,1.,0.)) ;
#168=DIRECTION('Vector Direction',(0.,1.,0.)) ;
#175=DIRECTION('Vector Direction',(0.,0.,1.)) ;
#187=DIRECTION('Axis2P3D Direction',(0.,-1.,0.)) ;
#188=DIRECTION('Axis2P3D XDirection',(0.,0.,1.)) ;
#192=DIRECTION('Vector Direction',(-1.,0.,0.)) ;
#204=DIRECTION('Axis2P3D Direction',(0.,1.,0.)) ;
#205=DIRECTION('Axis2P3D XDirection',(0.,-0.,-1.)) ;
#209=DIRECTION('Vector Direction',(-1.,0.,0.)) ;
#218=DIRECTION('Vector Direction',(0.,0.,-1.)) ;
#223=DIRECTION('Vector Direction',(0.,0.,-1.)) ;
#235=DIRECTION('Axis2P3D Direction',(-1.,0.,0.)) ;
#236=DIRECTION('Axis2P3D XDirection',(0.,-1.,0.)) ;
#240=DIRECTION('Vector Direction',(0.,0.,1.)) ;
#247=DIRECTION('Vector Direction',(0.,1.,0.)) ;
#254=DIRECTION('Vector Direction',(0.,0.,-1.)) ;
#261=DIRECTION('Vector Direction',(0.,1.,0.)) ;
#268=DIRECTION('Vector Direction',(0.,-0.202958198558,-0.979187402716)) ;
#275=DIRECTION('Vector Direction',(0.,1.,0.)) ;
#282=DIRECTION('Vector Direction',(0.,0.202958198558,-0.979187402716)) ;
#289=DIRECTION('Vector Direction',(0.,1.,0.)) ;
#296=DIRECTION('Vector Direction',(0.,0.,-1.)) ;
#303=DIRECTION('Vector Direction',(0.,1.,0.)) ;
#323=DIRECTION('Axis2P3D Direction',(0.,-1.,0.)) ;
#324=DIRECTION('Axis2P3D XDirection',(0.,0.,1.)) ;
#328=DIRECTION('Vector Direction',(-1.,0.,0.)) ;
#335=DIRECTION('Vector Direction',(0.,0.,1.)) ;
#347=DIRECTION('Axis2P3D Direction',(-1.,0.,0.)) ;
#348=DIRECTION('Axis2P3D XDirection',(0.,-1.,0.)) ;
#352=DIRECTION('Vector Direction',(0.,1.,0.)) ;
#359=DIRECTION('Vector Direction',(0.,0.,-1.)) ;
#366=DIRECTION('Vector Direction',(0.,1.,0.)) ;
#373=DIRECTION('Vector Direction',(0.,0.202958198657,-0.979187402696)) ;
#380=DIRECTION('Vector Direction',(0.,1.,0.)) ;
#387=DIRECTION('Vector Direction',(0.,-0.202958198657,-0.979187402696)) ;
#394=DIRECTION('Vector Direction',(0.,1.,0.)) ;
#401=DIRECTION('Vector Direction',(0.,0.,-1.)) ;
#408=DIRECTION('Vector Direction',(0.,1.,0.)) ;
#428=DIRECTION('Axis2P3D Direction',(0.,-0.,1.)) ;
#429=DIRECTION('Axis2P3D XDirection',(0.,1.,0.)) ;
#440=DIRECTION('Axis2P3D Direction',(0.,-0.,1.)) ;
#441=DIRECTION('Axis2P3D XDirection',(0.,1.,0.)) ;
#445=DIRECTION('Vector Direction',(-1.,0.,0.)) ;
#457=DIRECTION('Axis2P3D Direction',(1.83697019872E-016,1.,6.40289931324E-060)) ;
#458=DIRECTION('Axis2P3D XDirection',(-2.58195522249E-032,4.74297479815E-048,-1.)) ;
#462=DIRECTION('Vector Direction',(-1.,2.30695693339E-016,0.)) ;
#474=DIRECTION('Axis2P3D Direction',(0.,0.,1.)) ;
#475=DIRECTION('Axis2P3D XDirection',(1.83697019872E-016,1.,-0.)) ;
#479=DIRECTION('Vector Direction',(-1.,0.,0.)) ;
#491=DIRECTION('Axis2P3D Direction',(1.79873807763E-016,0.979187402648,-0.202958198889)) ;
#492=DIRECTION('Axis2P3D XDirection',(-3.72828162944E-017,-0.202958198889,-0.979187402648)) ;
#496=DIRECTION('Vector Direction',(-1.,9.62281359562E-009,4.64260023607E-008)) ;
#508=DIRECTION('Vector Direction',(-1.,-9.67607869356E-009,0.)) ;
#520=DIRECTION('Axis2P3D Direction',(1.79873807763E-016,0.979187402648,0.202958198889)) ;
#521=DIRECTION('Axis2P3D XDirection',(3.72828162944E-017,0.202958198889,-0.979187402648)) ;
#525=DIRECTION('Vector Direction',(-1.,0.,0.)) ;
#537=DIRECTION('Vector Direction',(-1.,0.,0.)) ;
#549=DIRECTION('Axis2P3D Direction',(1.83697019872E-016,1.,6.40289931324E-060)) ;
#550=DIRECTION('Axis2P3D XDirection',(-2.58195522249E-032,4.74297479815E-048,-1.)) ;
#554=DIRECTION('Vector Direction',(-1.,0.,0.)) ;
#31=PRESENTATION_LAYER_ASSIGNMENT('1',' ',(#22)) ;
#8=PRODUCT_RELATED_PRODUCT_CATEGORY('part',$,(#5)) ;
#7=PRODUCT_CATEGORY('part','specification') ;
#30=STYLED_ITEM(' ',(#29),#22) ;
#29=PRESENTATION_STYLE_ASSIGNMENT((#28)) ;
#28=SURFACE_STYLE_USAGE(.BOTH.,#27) ;
#27=SURFACE_SIDE_STYLE(' ',(#26)) ;
#26=SURFACE_STYLE_FILL_AREA(#25) ;
#25=FILL_AREA_STYLE(' ',(#24)) ;
#24=FILL_AREA_STYLE_COLOUR(' ',#23) ;
#40=VECTOR('Line Direction',#39,1.) ;
#49=VECTOR('Line Direction',#48,1.) ;
#56=VECTOR('Line Direction',#55,1.) ;
#63=VECTOR('Line Direction',#62,1.) ;
#74=VECTOR('Line Direction',#73,1.) ;
#83=VECTOR('Line Direction',#82,1.) ;
#90=VECTOR('Line Direction',#89,1.) ;
#97=VECTOR('Line Direction',#96,1.) ;
#114=VECTOR('Line Direction',#113,1.) ;
#121=VECTOR('Line Direction',#120,1.) ;
#128=VECTOR('Line Direction',#127,1.) ;
#145=VECTOR('Line Direction',#144,1.) ;
#152=VECTOR('Line Direction',#151,1.) ;
#169=VECTOR('Line Direction',#168,1.) ;
#176=VECTOR('Line Direction',#175,1.) ;
#193=VECTOR('Line Direction',#192,1.) ;
#210=VECTOR('Line Direction',#209,1.) ;
#219=VECTOR('Line Direction',#218,1.) ;
#224=VECTOR('Line Direction',#223,1.) ;
#241=VECTOR('Line Direction',#240,1.) ;
#248=VECTOR('Line Direction',#247,1.) ;
#255=VECTOR('Line Direction',#254,1.) ;
#262=VECTOR('Line Direction',#261,1.) ;
#269=VECTOR('Line Direction',#268,1.) ;
#276=VECTOR('Line Direction',#275,1.) ;
#283=VECTOR('Line Direction',#282,1.) ;
#290=VECTOR('Line Direction',#289,1.) ;
#297=VECTOR('Line Direction',#296,1.) ;
#304=VECTOR('Line Direction',#303,1.) ;
#329=VECTOR('Line Direction',#328,1.) ;
#336=VECTOR('Line Direction',#335,1.) ;
#353=VECTOR('Line Direction',#352,1.) ;
#360=VECTOR('Line Direction',#359,1.) ;
#367=VECTOR('Line Direction',#366,1.) ;
#374=VECTOR('Line Direction',#373,1.) ;
#381=VECTOR('Line Direction',#380,1.) ;
#388=VECTOR('Line Direction',#387,1.) ;
#395=VECTOR('Line Direction',#394,1.) ;
#402=VECTOR('Line Direction',#401,1.) ;
#409=VECTOR('Line Direction',#408,1.) ;
#446=VECTOR('Line Direction',#445,1.) ;
#463=VECTOR('Line Direction',#462,1.) ;
#480=VECTOR('Line Direction',#479,1.) ;
#497=VECTOR('Line Direction',#496,1.) ;
#509=VECTOR('Line Direction',#508,1.) ;
#526=VECTOR('Line Direction',#525,1.) ;
#538=VECTOR('Line Direction',#537,1.) ;
#555=VECTOR('Line Direction',#554,1.) ;
#16=UNCERTAINTY_MEASURE_WITH_UNIT(LENGTH_MEASURE(0.005),#12,'distance_accuracy_value','CONFUSED CURVE UNCERTAINTY') ;
#573=SHAPE_REPRESENTATION_RELATIONSHIP(' ',' ',#20,#572) ;
#67=ORIENTED_EDGE('',*,*,#46,.T.) ;
#68=ORIENTED_EDGE('',*,*,#53,.F.) ;
#69=ORIENTED_EDGE('',*,*,#60,.F.) ;
#70=ORIENTED_EDGE('',*,*,#65,.T.) ;
#101=ORIENTED_EDGE('',*,*,#80,.F.) ;
#102=ORIENTED_EDGE('',*,*,#87,.T.) ;
#103=ORIENTED_EDGE('',*,*,#94,.T.) ;
#104=ORIENTED_EDGE('',*,*,#99,.F.) ;
#132=ORIENTED_EDGE('',*,*,#118,.F.) ;
#133=ORIENTED_EDGE('',*,*,#125,.F.) ;
#134=ORIENTED_EDGE('',*,*,#130,.F.) ;
#135=ORIENTED_EDGE('',*,*,#46,.F.) ;
#156=ORIENTED_EDGE('',*,*,#130,.T.) ;
#157=ORIENTED_EDGE('',*,*,#149,.F.) ;
#158=ORIENTED_EDGE('',*,*,#154,.F.) ;
#159=ORIENTED_EDGE('',*,*,#53,.T.) ;
#180=ORIENTED_EDGE('',*,*,#60,.T.) ;
#181=ORIENTED_EDGE('',*,*,#154,.T.) ;
#182=ORIENTED_EDGE('',*,*,#173,.T.) ;
#183=ORIENTED_EDGE('',*,*,#178,.T.) ;
#197=ORIENTED_EDGE('',*,*,#118,.T.) ;
#198=ORIENTED_EDGE('',*,*,#65,.F.) ;
#199=ORIENTED_EDGE('',*,*,#178,.F.) ;
#200=ORIENTED_EDGE('',*,*,#195,.T.) ;
#228=ORIENTED_EDGE('',*,*,#216,.F.) ;
#229=ORIENTED_EDGE('',*,*,#221,.T.) ;
#230=ORIENTED_EDGE('',*,*,#80,.T.) ;
#231=ORIENTED_EDGE('',*,*,#226,.F.) ;
#308=ORIENTED_EDGE('',*,*,#245,.F.) ;
#309=ORIENTED_EDGE('',*,*,#87,.F.) ;
#310=ORIENTED_EDGE('',*,*,#221,.F.) ;
#311=ORIENTED_EDGE('',*,*,#252,.F.) ;
#312=ORIENTED_EDGE('',*,*,#259,.F.) ;
#313=ORIENTED_EDGE('',*,*,#266,.F.) ;
#314=ORIENTED_EDGE('',*,*,#273,.F.) ;
#315=ORIENTED_EDGE('',*,*,#280,.F.) ;
#316=ORIENTED_EDGE('',*,*,#287,.T.) ;
#317=ORIENTED_EDGE('',*,*,#294,.T.) ;
#318=ORIENTED_EDGE('',*,*,#301,.T.) ;
#319=ORIENTED_EDGE('',*,*,#306,.F.) ;
#340=ORIENTED_EDGE('',*,*,#94,.F.) ;
#341=ORIENTED_EDGE('',*,*,#245,.T.) ;
#342=ORIENTED_EDGE('',*,*,#333,.T.) ;
#343=ORIENTED_EDGE('',*,*,#338,.F.) ;
#413=ORIENTED_EDGE('',*,*,#357,.T.) ;
#414=ORIENTED_EDGE('',*,*,#364,.F.) ;
#415=ORIENTED_EDGE('',*,*,#371,.F.) ;
#416=ORIENTED_EDGE('',*,*,#378,.F.) ;
#417=ORIENTED_EDGE('',*,*,#385,.T.) ;
#418=ORIENTED_EDGE('',*,*,#392,.T.) ;
#419=ORIENTED_EDGE('',*,*,#399,.T.) ;
#420=ORIENTED_EDGE('',*,*,#406,.T.) ;
#421=ORIENTED_EDGE('',*,*,#411,.T.) ;
#422=ORIENTED_EDGE('',*,*,#226,.T.) ;
#423=ORIENTED_EDGE('',*,*,#99,.T.) ;
#424=ORIENTED_EDGE('',*,*,#338,.T.) ;
#433=ORIENTED_EDGE('',*,*,#125,.T.) ;
#434=ORIENTED_EDGE('',*,*,#195,.F.) ;
#435=ORIENTED_EDGE('',*,*,#173,.F.) ;
#436=ORIENTED_EDGE('',*,*,#149,.T.) ;
#450=ORIENTED_EDGE('',*,*,#448,.F.) ;
#451=ORIENTED_EDGE('',*,*,#252,.T.) ;
#452=ORIENTED_EDGE('',*,*,#216,.T.) ;
#453=ORIENTED_EDGE('',*,*,#411,.F.) ;
#467=ORIENTED_EDGE('',*,*,#465,.F.) ;
#468=ORIENTED_EDGE('',*,*,#259,.T.) ;
#469=ORIENTED_EDGE('',*,*,#448,.T.) ;
#470=ORIENTED_EDGE('',*,*,#406,.F.) ;
#484=ORIENTED_EDGE('',*,*,#482,.F.) ;
#485=ORIENTED_EDGE('',*,*,#266,.T.) ;
#486=ORIENTED_EDGE('',*,*,#465,.T.) ;
#487=ORIENTED_EDGE('',*,*,#399,.F.) ;
#501=ORIENTED_EDGE('',*,*,#499,.F.) ;
#502=ORIENTED_EDGE('',*,*,#273,.T.) ;
#503=ORIENTED_EDGE('',*,*,#482,.T.) ;
#504=ORIENTED_EDGE('',*,*,#392,.F.) ;
#513=ORIENTED_EDGE('',*,*,#511,.F.) ;
#514=ORIENTED_EDGE('',*,*,#280,.T.) ;
#515=ORIENTED_EDGE('',*,*,#499,.T.) ;
#516=ORIENTED_EDGE('',*,*,#385,.F.) ;
#530=ORIENTED_EDGE('',*,*,#378,.T.) ;
#531=ORIENTED_EDGE('',*,*,#528,.F.) ;
#532=ORIENTED_EDGE('',*,*,#287,.F.) ;
#533=ORIENTED_EDGE('',*,*,#511,.T.) ;
#542=ORIENTED_EDGE('',*,*,#371,.T.) ;
#543=ORIENTED_EDGE('',*,*,#540,.F.) ;
#544=ORIENTED_EDGE('',*,*,#294,.F.) ;
#545=ORIENTED_EDGE('',*,*,#528,.T.) ;
#559=ORIENTED_EDGE('',*,*,#364,.T.) ;
#560=ORIENTED_EDGE('',*,*,#557,.F.) ;
#561=ORIENTED_EDGE('',*,*,#301,.F.) ;
#562=ORIENTED_EDGE('',*,*,#540,.T.) ;
#566=ORIENTED_EDGE('',*,*,#557,.T.) ;
#567=ORIENTED_EDGE('',*,*,#357,.F.) ;
#568=ORIENTED_EDGE('',*,*,#333,.F.) ;
#569=ORIENTED_EDGE('',*,*,#306,.T.) ;
#105=FACE_BOUND('',#100,.T.) ;
#32=CLOSED_SHELL('Closed Shell',(#106,#137,#161,#185,#202,#233,#321,#345,#426,#438,#455,#472,#489,#506,#518,#535,#547,#564,#571)) ;
#572=ADVANCED_BREP_SHAPE_REPRESENTATION('NONE',(#22),#17) ;
#106=ADVANCED_FACE('S3D - gedreht',(#71,#105),#37,.T.) ;
#137=ADVANCED_FACE('S3D - gedreht',(#136),#111,.F.) ;
#161=ADVANCED_FACE('S3D - gedreht',(#160),#142,.T.) ;
#185=ADVANCED_FACE('S3D - gedreht',(#184),#166,.T.) ;
#202=ADVANCED_FACE('S3D - gedreht',(#201),#190,.T.) ;
#233=ADVANCED_FACE('S3D - gedreht',(#232),#207,.F.) ;
#321=ADVANCED_FACE('S3D - gedreht',(#320),#238,.F.) ;
#345=ADVANCED_FACE('S3D - gedreht',(#344),#326,.F.) ;
#426=ADVANCED_FACE('S3D - gedreht',(#425),#350,.T.) ;
#438=ADVANCED_FACE('S3D - gedreht',(#437),#431,.T.) ;
#455=ADVANCED_FACE('S3D - gedreht',(#454),#443,.F.) ;
#472=ADVANCED_FACE('S3D - gedreht',(#471),#460,.F.) ;
#489=ADVANCED_FACE('S3D - gedreht',(#488),#477,.F.) ;
#506=ADVANCED_FACE('S3D - gedreht',(#505),#494,.T.) ;
#518=ADVANCED_FACE('S3D - gedreht',(#517),#443,.F.) ;
#535=ADVANCED_FACE('S3D - gedreht',(#534),#523,.F.) ;
#547=ADVANCED_FACE('S3D - gedreht',(#546),#477,.F.) ;
#564=ADVANCED_FACE('S3D - gedreht',(#563),#552,.T.) ;
#571=ADVANCED_FACE('S3D - gedreht',(#570),#443,.F.) ;
#4=APPLICATION_PROTOCOL_DEFINITION('international standard','automotive_design',2001,#1) ;
#22=MANIFOLD_SOLID_BREP('S3D - gedreht',#32) ;
#23=COLOUR_RGB('Colour',0.501960784314,0.,1.) ;
#46=EDGE_CURVE('',#43,#45,#41,.F.) ;
#53=EDGE_CURVE('',#52,#45,#50,.T.) ;
#60=EDGE_CURVE('',#59,#52,#57,.F.) ;
#65=EDGE_CURVE('',#59,#43,#64,.T.) ;
#80=EDGE_CURVE('',#77,#79,#75,.T.) ;
#87=EDGE_CURVE('',#77,#86,#84,.F.) ;
#94=EDGE_CURVE('',#86,#93,#91,.T.) ;
#99=EDGE_CURVE('',#79,#93,#98,.F.) ;
#118=EDGE_CURVE('',#117,#43,#115,.F.) ;
#125=EDGE_CURVE('',#124,#117,#122,.F.) ;
#130=EDGE_CURVE('',#45,#124,#129,.F.) ;
#149=EDGE_CURVE('',#148,#124,#146,.T.) ;
#154=EDGE_CURVE('',#52,#148,#153,.F.) ;
#173=EDGE_CURVE('',#148,#172,#170,.F.) ;
#178=EDGE_CURVE('',#172,#59,#177,.F.) ;
#195=EDGE_CURVE('',#172,#117,#194,.T.) ;
#216=EDGE_CURVE('',#213,#215,#211,.T.) ;
#221=EDGE_CURVE('',#213,#77,#220,.F.) ;
#226=EDGE_CURVE('',#215,#79,#225,.F.) ;
#245=EDGE_CURVE('',#86,#244,#242,.F.) ;
#252=EDGE_CURVE('',#251,#213,#249,.F.) ;
#259=EDGE_CURVE('',#258,#251,#256,.F.) ;
#266=EDGE_CURVE('',#265,#258,#263,.F.) ;
#273=EDGE_CURVE('',#272,#265,#270,.T.) ;
#280=EDGE_CURVE('',#279,#272,#277,.F.) ;
#287=EDGE_CURVE('',#279,#286,#284,.T.) ;
#294=EDGE_CURVE('',#286,#293,#291,.T.) ;
#301=EDGE_CURVE('',#293,#300,#298,.F.) ;
#306=EDGE_CURVE('',#244,#300,#305,.F.) ;
#333=EDGE_CURVE('',#244,#332,#330,.T.) ;
#338=EDGE_CURVE('',#93,#332,#337,.F.) ;
#357=EDGE_CURVE('',#332,#356,#354,.F.) ;
#364=EDGE_CURVE('',#363,#356,#361,.F.) ;
#371=EDGE_CURVE('',#370,#363,#368,.T.) ;
#378=EDGE_CURVE('',#377,#370,#375,.T.) ;
#385=EDGE_CURVE('',#377,#384,#382,.F.) ;
#392=EDGE_CURVE('',#384,#391,#389,.T.) ;
#399=EDGE_CURVE('',#391,#398,#396,.F.) ;
#406=EDGE_CURVE('',#398,#405,#403,.F.) ;
#411=EDGE_CURVE('',#405,#215,#410,.F.) ;
#448=EDGE_CURVE('',#251,#405,#447,.T.) ;
#465=EDGE_CURVE('',#258,#398,#464,.T.) ;
#482=EDGE_CURVE('',#265,#391,#481,.T.) ;
#499=EDGE_CURVE('',#272,#384,#498,.T.) ;
#511=EDGE_CURVE('',#279,#377,#510,.T.) ;
#528=EDGE_CURVE('',#286,#370,#527,.T.) ;
#540=EDGE_CURVE('',#293,#363,#539,.T.) ;
#557=EDGE_CURVE('',#300,#356,#556,.T.) ;
#66=EDGE_LOOP('',(#67,#68,#69,#70)) ;
#100=EDGE_LOOP('',(#101,#102,#103,#104)) ;
#131=EDGE_LOOP('',(#132,#133,#134,#135)) ;
#155=EDGE_LOOP('',(#156,#157,#158,#159)) ;
#179=EDGE_LOOP('',(#180,#181,#182,#183)) ;
#196=EDGE_LOOP('',(#197,#198,#199,#200)) ;
#227=EDGE_LOOP('',(#228,#229,#230,#231)) ;
#307=EDGE_LOOP('',(#308,#309,#310,#311,#312,#313,#314,#315,#316,#317,#318,#319)) ;
#339=EDGE_LOOP('',(#340,#341,#342,#343)) ;
#412=EDGE_LOOP('',(#413,#414,#415,#416,#417,#418,#419,#420,#421,#422,#423,#424)) ;
#432=EDGE_LOOP('',(#433,#434,#435,#436)) ;
#449=EDGE_LOOP('',(#450,#451,#452,#453)) ;
#466=EDGE_LOOP('',(#467,#468,#469,#470)) ;
#483=EDGE_LOOP('',(#484,#485,#486,#487)) ;
#500=EDGE_LOOP('',(#501,#502,#503,#504)) ;
#512=EDGE_LOOP('',(#513,#514,#515,#516)) ;
#529=EDGE_LOOP('',(#530,#531,#532,#533)) ;
#541=EDGE_LOOP('',(#542,#543,#544,#545)) ;
#558=EDGE_LOOP('',(#559,#560,#561,#562)) ;
#565=EDGE_LOOP('',(#566,#567,#568,#569)) ;
#71=FACE_OUTER_BOUND('',#66,.T.) ;
#136=FACE_OUTER_BOUND('',#131,.T.) ;
#160=FACE_OUTER_BOUND('',#155,.T.) ;
#184=FACE_OUTER_BOUND('',#179,.T.) ;
#201=FACE_OUTER_BOUND('',#196,.T.) ;
#232=FACE_OUTER_BOUND('',#227,.T.) ;
#320=FACE_OUTER_BOUND('',#307,.T.) ;
#344=FACE_OUTER_BOUND('',#339,.T.) ;
#425=FACE_OUTER_BOUND('',#412,.T.) ;
#437=FACE_OUTER_BOUND('',#432,.T.) ;
#454=FACE_OUTER_BOUND('',#449,.T.) ;
#471=FACE_OUTER_BOUND('',#466,.T.) ;
#488=FACE_OUTER_BOUND('',#483,.T.) ;
#505=FACE_OUTER_BOUND('',#500,.T.) ;
#517=FACE_OUTER_BOUND('',#512,.T.) ;
#534=FACE_OUTER_BOUND('',#529,.T.) ;
#546=FACE_OUTER_BOUND('',#541,.T.) ;
#563=FACE_OUTER_BOUND('',#558,.T.) ;
#570=FACE_OUTER_BOUND('',#565,.T.) ;
#41=LINE('Line',#38,#40) ;
#50=LINE('Line',#47,#49) ;
#57=LINE('Line',#54,#56) ;
#64=LINE('Line',#61,#63) ;
#75=LINE('Line',#72,#74) ;
#84=LINE('Line',#81,#83) ;
#91=LINE('Line',#88,#90) ;
#98=LINE('Line',#95,#97) ;
#115=LINE('Line',#112,#114) ;
#122=LINE('Line',#119,#121) ;
#129=LINE('Line',#126,#128) ;
#146=LINE('Line',#143,#145) ;
#153=LINE('Line',#150,#152) ;
#170=LINE('Line',#167,#169) ;
#177=LINE('Line',#174,#176) ;
#194=LINE('Line',#191,#193) ;
#211=LINE('Line',#208,#210) ;
#220=LINE('Line',#217,#219) ;
#225=LINE('Line',#222,#224) ;
#242=LINE('Line',#239,#241) ;
#249=LINE('Line',#246,#248) ;
#256=LINE('Line',#253,#255) ;
#263=LINE('Line',#260,#262) ;
#270=LINE('Line',#267,#269) ;
#277=LINE('Line',#274,#276) ;
#284=LINE('Line',#281,#283) ;
#291=LINE('Line',#288,#290) ;
#298=LINE('Line',#295,#297) ;
#305=LINE('Line',#302,#304) ;
#330=LINE('Line',#327,#329) ;
#337=LINE('Line',#334,#336) ;
#354=LINE('Line',#351,#353) ;
#361=LINE('Line',#358,#360) ;
#368=LINE('Line',#365,#367) ;
#375=LINE('Line',#372,#374) ;
#382=LINE('Line',#379,#381) ;
#389=LINE('Line',#386,#388) ;
#396=LINE('Line',#393,#395) ;
#403=LINE('Line',#400,#402) ;
#410=LINE('Line',#407,#409) ;
#447=LINE('Line',#444,#446) ;
#464=LINE('Line',#461,#463) ;
#481=LINE('Line',#478,#480) ;
#498=LINE('Line',#495,#497) ;
#510=LINE('Line',#507,#509) ;
#527=LINE('Line',#524,#526) ;
#539=LINE('Line',#536,#538) ;
#556=LINE('Line',#553,#555) ;
#37=PLANE('',#36) ;
#111=PLANE('',#110) ;
#142=PLANE('',#141) ;
#166=PLANE('',#165) ;
#190=PLANE('',#189) ;
#207=PLANE('',#206) ;
#238=PLANE('',#237) ;
#326=PLANE('',#325) ;
#350=PLANE('',#349) ;
#431=PLANE('',#430) ;
#443=PLANE('',#442) ;
#460=PLANE('',#459) ;
#477=PLANE('',#476) ;
#494=PLANE('',#493) ;
#523=PLANE('',#522) ;
#552=PLANE('',#551) ;
#14=PLANE_ANGLE_MEASURE_WITH_UNIT(PLANE_ANGLE_MEASURE(0.0174532925199),#13) ;
#9=PRODUCT_CATEGORY_RELATIONSHIP(' ',' ',#7,#8) ;
#6=PRODUCT_DEFINITION_FORMATION_WITH_SPECIFIED_SOURCE('',' ',#5,.NOT_KNOWN.) ;
#21=SHAPE_DEFINITION_REPRESENTATION(#11,#20) ;
#43=VERTEX_POINT('',#42) ;
#45=VERTEX_POINT('',#44) ;
#52=VERTEX_POINT('',#51) ;
#59=VERTEX_POINT('',#58) ;
#77=VERTEX_POINT('',#76) ;
#79=VERTEX_POINT('',#78) ;
#86=VERTEX_POINT('',#85) ;
#93=VERTEX_POINT('',#92) ;
#117=VERTEX_POINT('',#116) ;
#124=VERTEX_POINT('',#123) ;
#148=VERTEX_POINT('',#147) ;
#172=VERTEX_POINT('',#171) ;
#213=VERTEX_POINT('',#212) ;
#215=VERTEX_POINT('',#214) ;
#244=VERTEX_POINT('',#243) ;
#251=VERTEX_POINT('',#250) ;
#258=VERTEX_POINT('',#257) ;
#265=VERTEX_POINT('',#264) ;
#272=VERTEX_POINT('',#271) ;
#279=VERTEX_POINT('',#278) ;
#286=VERTEX_POINT('',#285) ;
#293=VERTEX_POINT('',#292) ;
#300=VERTEX_POINT('',#299) ;
#332=VERTEX_POINT('',#331) ;
#356=VERTEX_POINT('',#355) ;
#363=VERTEX_POINT('',#362) ;
#370=VERTEX_POINT('',#369) ;
#377=VERTEX_POINT('',#376) ;
#384=VERTEX_POINT('',#383) ;
#391=VERTEX_POINT('',#390) ;
#398=VERTEX_POINT('',#397) ;
#405=VERTEX_POINT('',#404) ;
#12=(LENGTH_UNIT()NAMED_UNIT(*)SI_UNIT(.MILLI.,.METRE.)) ;
#13=(NAMED_UNIT(*)PLANE_ANGLE_UNIT()SI_UNIT($,.RADIAN.)) ;
#15=(NAMED_UNIT(*)SI_UNIT($,.STERADIAN.)SOLID_ANGLE_UNIT()) ;
#17=(GEOMETRIC_REPRESENTATION_CONTEXT(3)GLOBAL_UNCERTAINTY_ASSIGNED_CONTEXT((#16))GLOBAL_UNIT_ASSIGNED_CONTEXT((#12,#13,#15))REPRESENTATION_CONTEXT(' ',' ')) ;
ENDSEC;
END-ISO-10303-21;
