ISO-10303-21;
HEADER;
FILE_DESCRIPTION(('CATIA V5 STEP Exchange','CAx-IF Rec.Pracs.--- Model Styling and Organization---1.4--- 2014-01-23'),'2;1');

FILE_NAME ('033848-1_1', '2019-06-06T10:17:23+00:00', ('none'), ('Weidmueller'), 'CATIA Version 5-6 Release 2016 SP3 HF44', 'CATIA V5 STEP AP214', 'none');

FILE_SCHEMA(('AUTOMOTIVE_DESIGN { 1 0 10303 214 1 1 1 1 }'));

ENDSEC;
DATA;
#5=PRODUCT('9200180000','','',(#2)) ;
#2=PRODUCT_CONTEXT(' ',#1,'mechanical') ;
#1=APPLICATION_CONTEXT('automotive design') ;
#10=PRODUCT_DEFINITION('',' ',#6,#3) ;
#3=PRODUCT_DEFINITION_CONTEXT('part definition',#1,' ') ;
#11=PRODUCT_DEFINITION_SHAPE(' ',' ',#10) ;
#527=MECHANICAL_DESIGN_GEOMETRIC_PRESENTATION_REPRESENTATION(' ',(#79,#97,#190,#219,#256,#264,#29),#16) ;
#19=SHAPE_REPRESENTATION(' ',(#18),#16) ;
#18=AXIS2_PLACEMENT_3D(' ',#17,$,$) ;
#35=AXIS2_PLACEMENT_3D('Cylinder Axis2P3D',#32,#33,#34) ;
#48=AXIS2_PLACEMENT_3D('Circle Axis2P3D',#46,#47,$) ;
#62=AXIS2_PLACEMENT_3D('Circle Axis2P3D',#60,#61,$) ;
#82=AXIS2_PLACEMENT_3D('Circle Axis2P3D',#80,#81,$) ;
#87=AXIS2_PLACEMENT_3D('Circle Axis2P3D',#85,#86,$) ;
#101=AXIS2_PLACEMENT_3D('Plane Axis2P3D',#98,#99,#100) ;
#109=AXIS2_PLACEMENT_3D('Circle Axis2P3D',#107,#108,$) ;
#139=AXIS2_PLACEMENT_3D('Circle Axis2P3D',#137,#138,$) ;
#146=AXIS2_PLACEMENT_3D('Circle Axis2P3D',#144,#145,$) ;
#153=AXIS2_PLACEMENT_3D('Circle Axis2P3D',#151,#152,$) ;
#194=AXIS2_PLACEMENT_3D('Plane Axis2P3D',#191,#192,#193) ;
#202=AXIS2_PLACEMENT_3D('Circle Axis2P3D',#200,#201,$) ;
#211=AXIS2_PLACEMENT_3D('Circle Axis2P3D',#209,#210,$) ;
#223=AXIS2_PLACEMENT_3D('Cylinder Axis2P3D',#220,#221,#222) ;
#232=AXIS2_PLACEMENT_3D('Circle Axis2P3D',#230,#231,$) ;
#237=AXIS2_PLACEMENT_3D('Circle Axis2P3D',#235,#236,$) ;
#268=AXIS2_PLACEMENT_3D('Plane Axis2P3D',#265,#266,#267) ;
#299=AXIS2_PLACEMENT_3D('Plane Axis2P3D',#296,#297,#298) ;
#310=AXIS2_PLACEMENT_3D('Circle Axis2P3D',#308,#309,$) ;
#317=AXIS2_PLACEMENT_3D('Circle Axis2P3D',#315,#316,$) ;
#324=AXIS2_PLACEMENT_3D('Circle Axis2P3D',#322,#323,$) ;
#344=AXIS2_PLACEMENT_3D('Circle Axis2P3D',#342,#343,$) ;
#353=AXIS2_PLACEMENT_3D('Circle Axis2P3D',#351,#352,$) ;
#364=AXIS2_PLACEMENT_3D('Cylinder Axis2P3D',#361,#362,#363) ;
#375=AXIS2_PLACEMENT_3D('Circle Axis2P3D',#373,#374,$) ;
#388=AXIS2_PLACEMENT_3D('Plane Axis2P3D',#385,#386,#387) ;
#397=AXIS2_PLACEMENT_3D('Circle Axis2P3D',#395,#396,$) ;
#404=AXIS2_PLACEMENT_3D('Circle Axis2P3D',#402,#403,$) ;
#426=AXIS2_PLACEMENT_3D('Circle Axis2P3D',#424,#425,$) ;
#435=AXIS2_PLACEMENT_3D('Circle Axis2P3D',#433,#434,$) ;
#453=AXIS2_PLACEMENT_3D('Cylinder Axis2P3D',#450,#451,#452) ;
#470=AXIS2_PLACEMENT_3D('Cylinder Axis2P3D',#467,#468,#469) ;
#487=AXIS2_PLACEMENT_3D('Plane Axis2P3D',#484,#485,#486) ;
#499=AXIS2_PLACEMENT_3D('Cylinder Axis2P3D',#496,#497,#498) ;
#17=CARTESIAN_POINT(' ',(0.,0.,0.)) ;
#32=CARTESIAN_POINT('Axis2P3D Location',(4.,2.1,1.9)) ;
#37=CARTESIAN_POINT('Line Origine',(5.9,2.1,1.9)) ;
#41=CARTESIAN_POINT('Vertex',(5.9,4.2,1.9)) ;
#43=CARTESIAN_POINT('Vertex',(5.9,1.44860907547E-015,1.9)) ;
#46=CARTESIAN_POINT('Axis2P3D Location',(4.,4.2,1.9)) ;
#50=CARTESIAN_POINT('Vertex',(2.1,4.2,1.9)) ;
#53=CARTESIAN_POINT('Line Origine',(2.1,2.1,1.9)) ;
#57=CARTESIAN_POINT('Vertex',(2.1,1.21592618363E-015,1.9)) ;
#60=CARTESIAN_POINT('Axis2P3D Location',(4.,1.33226762955E-015,1.9)) ;
#80=CARTESIAN_POINT('Axis2P3D Location',(4.,4.2,1.9)) ;
#85=CARTESIAN_POINT('Axis2P3D Location',(4.,1.33226762955E-015,1.9)) ;
#98=CARTESIAN_POINT('Axis2P3D Location',(5.5,4.2,1.5)) ;
#107=CARTESIAN_POINT('Axis2P3D Location',(4.,4.2,1.9)) ;
#111=CARTESIAN_POINT('Vertex',(3.52041684767,4.2,0.8)) ;
#113=CARTESIAN_POINT('Vertex',(4.47958315233,4.2,0.8)) ;
#116=CARTESIAN_POINT('Line Origine',(4.98979157617,4.2,0.8)) ;
#120=CARTESIAN_POINT('Vertex',(5.5,4.2,0.8)) ;
#123=CARTESIAN_POINT('Line Origine',(5.5,4.2,1.15)) ;
#127=CARTESIAN_POINT('Vertex',(5.5,4.2,1.5)) ;
#130=CARTESIAN_POINT('Line Origine',(5.31568542495,4.2,1.5)) ;
#134=CARTESIAN_POINT('Vertex',(5.1313708499,4.2,1.5)) ;
#137=CARTESIAN_POINT('Axis2P3D Location',(4.,4.2,1.9)) ;
#141=CARTESIAN_POINT('Vertex',(5.2,4.2,1.9)) ;
#144=CARTESIAN_POINT('Axis2P3D Location',(4.,4.2,1.9)) ;
#148=CARTESIAN_POINT('Vertex',(2.8,4.2,1.9)) ;
#151=CARTESIAN_POINT('Axis2P3D Location',(4.,4.2,1.9)) ;
#155=CARTESIAN_POINT('Vertex',(2.8686291501,4.2,1.5)) ;
#158=CARTESIAN_POINT('Line Origine',(2.68431457505,4.2,1.5)) ;
#162=CARTESIAN_POINT('Vertex',(2.5,4.2,1.5)) ;
#165=CARTESIAN_POINT('Line Origine',(2.5,4.2,1.15)) ;
#169=CARTESIAN_POINT('Vertex',(2.5,4.2,0.8)) ;
#172=CARTESIAN_POINT('Line Origine',(3.01020842383,4.2,0.8)) ;
#191=CARTESIAN_POINT('Axis2P3D Location',(4.,0.,1.5)) ;
#200=CARTESIAN_POINT('Axis2P3D Location',(4.,-4.89858719659E-017,1.9)) ;
#204=CARTESIAN_POINT('Vertex',(2.8,1.2587888216E-015,1.9)) ;
#206=CARTESIAN_POINT('Vertex',(5.2,1.4057464375E-015,1.9)) ;
#209=CARTESIAN_POINT('Axis2P3D Location',(4.,-4.89858719659E-017,1.9)) ;
#220=CARTESIAN_POINT('Axis2P3D Location',(4.,2.1,1.9)) ;
#225=CARTESIAN_POINT('Line Origine',(5.2,2.1,1.9)) ;
#230=CARTESIAN_POINT('Axis2P3D Location',(4.,4.2,1.9)) ;
#235=CARTESIAN_POINT('Axis2P3D Location',(4.,4.2,1.9)) ;
#240=CARTESIAN_POINT('Line Origine',(2.8,2.1,1.9)) ;
#265=CARTESIAN_POINT('Axis2P3D Location',(2.5,4.2,1.5)) ;
#270=CARTESIAN_POINT('Line Origine',(2.189477995,5.72626441617,1.5)) ;
#274=CARTESIAN_POINT('Vertex',(1.87895599,7.25252883234,1.5)) ;
#277=CARTESIAN_POINT('Line Origine',(1.87895599,7.25252883234,1.15)) ;
#281=CARTESIAN_POINT('Vertex',(1.87895599,7.25252883234,0.8)) ;
#284=CARTESIAN_POINT('Line Origine',(2.189477995,5.72626441617,0.8)) ;
#296=CARTESIAN_POINT('Axis2P3D Location',(4.,11.7,1.5)) ;
#301=CARTESIAN_POINT('Line Origine',(5.810522005,5.72626441617,1.5)) ;
#305=CARTESIAN_POINT('Vertex',(6.12104401,7.25252883234,1.5)) ;
#308=CARTESIAN_POINT('Axis2P3D Location',(10.0407428285,6.45505709467,1.5)) ;
#312=CARTESIAN_POINT('Vertex',(7.02035929635,9.0775145909,1.5)) ;
#315=CARTESIAN_POINT('Axis2P3D Location',(4.,11.7,1.5)) ;
#319=CARTESIAN_POINT('Vertex',(0.979614281686,9.07754502163,1.5)) ;
#322=CARTESIAN_POINT('Axis2P3D Location',(-2.04074282848,6.45505709467,1.5)) ;
#327=CARTESIAN_POINT('Line Origine',(4.,4.2,1.5)) ;
#342=CARTESIAN_POINT('Axis2P3D Location',(4.,11.7,1.5)) ;
#346=CARTESIAN_POINT('Vertex',(6.65,11.7,1.5)) ;
#348=CARTESIAN_POINT('Vertex',(1.35,11.7,1.5)) ;
#351=CARTESIAN_POINT('Axis2P3D Location',(4.,11.7,1.5)) ;
#361=CARTESIAN_POINT('Axis2P3D Location',(-2.04074282848,6.45505709467,1.15)) ;
#366=CARTESIAN_POINT('Line Origine',(0.979614281686,9.07754502163,1.15)) ;
#370=CARTESIAN_POINT('Vertex',(0.979614281686,9.07754502163,0.8)) ;
#373=CARTESIAN_POINT('Axis2P3D Location',(-2.04074282848,6.45505709467,0.8)) ;
#385=CARTESIAN_POINT('Axis2P3D Location',(4.,11.7,0.8)) ;
#390=CARTESIAN_POINT('Line Origine',(4.,4.2,0.8)) ;
#395=CARTESIAN_POINT('Axis2P3D Location',(4.,11.7,0.8)) ;
#399=CARTESIAN_POINT('Vertex',(7.02035929635,9.0775145909,0.8)) ;
#402=CARTESIAN_POINT('Axis2P3D Location',(10.0407428285,6.45505709467,0.8)) ;
#406=CARTESIAN_POINT('Vertex',(6.12104401,7.25252883234,0.8)) ;
#409=CARTESIAN_POINT('Line Origine',(5.810522005,5.72626441617,0.8)) ;
#424=CARTESIAN_POINT('Axis2P3D Location',(4.,11.7,0.8)) ;
#428=CARTESIAN_POINT('Vertex',(1.35,11.7,0.8)) ;
#430=CARTESIAN_POINT('Vertex',(6.65,11.7,0.8)) ;
#433=CARTESIAN_POINT('Axis2P3D Location',(4.,11.7,0.8)) ;
#450=CARTESIAN_POINT('Axis2P3D Location',(4.,11.7,1.15)) ;
#455=CARTESIAN_POINT('Line Origine',(7.02035929635,9.0775145909,1.15)) ;
#467=CARTESIAN_POINT('Axis2P3D Location',(10.0407428285,6.45505709467,1.15)) ;
#472=CARTESIAN_POINT('Line Origine',(6.12104401,7.25252883234,1.15)) ;
#484=CARTESIAN_POINT('Axis2P3D Location',(5.5,4.2,1.5)) ;
#496=CARTESIAN_POINT('Axis2P3D Location',(4.,11.7,1.15)) ;
#501=CARTESIAN_POINT('Line Origine',(1.35,11.7,1.15)) ;
#506=CARTESIAN_POINT('Line Origine',(6.65,11.7,1.15)) ;
#33=DIRECTION('Axis2P3D Direction',(6.12323399574E-017,-1.,-1.22464679915E-016)) ;
#34=DIRECTION('Axis2P3D XDirection',(1.,6.12323399574E-017,2.44929359829E-016)) ;
#38=DIRECTION('Vector Direction',(0.,-1.,-1.05735526155E-016)) ;
#47=DIRECTION('Axis2P3D Direction',(6.12323399574E-017,-1.,-1.22464679915E-016)) ;
#54=DIRECTION('Vector Direction',(0.,-1.,-1.05735526155E-016)) ;
#61=DIRECTION('Axis2P3D Direction',(6.12323399574E-017,-1.,-1.22464679915E-016)) ;
#81=DIRECTION('Axis2P3D Direction',(6.12323399574E-017,-1.,-1.22464679915E-016)) ;
#86=DIRECTION('Axis2P3D Direction',(6.12323399574E-017,-1.,-1.22464679915E-016)) ;
#99=DIRECTION('Axis2P3D Direction',(6.12323399574E-017,-1.,-1.22464679915E-016)) ;
#100=DIRECTION('Axis2P3D XDirection',(-1.,-6.12323399574E-017,-2.44929359829E-016)) ;
#108=DIRECTION('Axis2P3D Direction',(6.12323399574E-017,-1.,-1.22464679915E-016)) ;
#117=DIRECTION('Vector Direction',(-1.,0.,-2.17601860879E-016)) ;
#124=DIRECTION('Vector Direction',(0.,0.,-1.)) ;
#131=DIRECTION('Vector Direction',(-1.,0.,0.)) ;
#138=DIRECTION('Axis2P3D Direction',(6.12323399574E-017,-1.,-1.22464679915E-016)) ;
#145=DIRECTION('Axis2P3D Direction',(6.12323399574E-017,-1.,-1.22464679915E-016)) ;
#152=DIRECTION('Axis2P3D Direction',(6.12323399574E-017,-1.,-1.22464679915E-016)) ;
#159=DIRECTION('Vector Direction',(-1.,0.,0.)) ;
#166=DIRECTION('Vector Direction',(0.,0.,-1.)) ;
#173=DIRECTION('Vector Direction',(-1.,0.,-2.17601860879E-016)) ;
#192=DIRECTION('Axis2P3D Direction',(6.12323399574E-017,-1.,-1.22464679915E-016)) ;
#193=DIRECTION('Axis2P3D XDirection',(1.,6.12323399574E-017,2.44929359829E-016)) ;
#201=DIRECTION('Axis2P3D Direction',(6.12323399574E-017,-1.,-1.22464679915E-016)) ;
#210=DIRECTION('Axis2P3D Direction',(6.12323399574E-017,-1.,-1.22464679915E-016)) ;
#221=DIRECTION('Axis2P3D Direction',(6.12323399574E-017,-1.,-1.22464679915E-016)) ;
#222=DIRECTION('Axis2P3D XDirection',(1.,6.12323399574E-017,2.44929359829E-016)) ;
#226=DIRECTION('Vector Direction',(0.,-1.,-1.05735526155E-016)) ;
#231=DIRECTION('Axis2P3D Direction',(6.12323399574E-017,-1.,-1.22464679915E-016)) ;
#236=DIRECTION('Axis2P3D Direction',(6.12323399574E-017,-1.,-1.22464679915E-016)) ;
#241=DIRECTION('Vector Direction',(0.,-1.,-1.05735526155E-016)) ;
#266=DIRECTION('Axis2P3D Direction',(-0.979924704621,-0.199367934417,-2.64427860858E-016)) ;
#267=DIRECTION('Axis2P3D XDirection',(-0.199367934417,0.979924704621,7.11751047446E-017)) ;
#271=DIRECTION('Vector Direction',(-0.199367934417,0.979924704621,7.12808971986E-017)) ;
#278=DIRECTION('Vector Direction',(3.17206578464E-016,0.,-1.)) ;
#285=DIRECTION('Vector Direction',(-0.199367934417,0.979924704621,7.12808971986E-017)) ;
#297=DIRECTION('Axis2P3D Direction',(2.44929359829E-016,1.22464679915E-016,-1.)) ;
#298=DIRECTION('Axis2P3D XDirection',(-1.,-6.12323399574E-017,-2.44929359829E-016)) ;
#302=DIRECTION('Vector Direction',(0.199367934417,0.979924704621,1.42561794397E-016)) ;
#309=DIRECTION('Axis2P3D Direction',(2.44929359829E-016,1.22464679915E-016,-1.)) ;
#316=DIRECTION('Axis2P3D Direction',(2.44929359829E-016,1.22464679915E-016,-1.)) ;
#323=DIRECTION('Axis2P3D Direction',(2.44929359829E-016,1.22464679915E-016,-1.)) ;
#328=DIRECTION('Vector Direction',(-1.,0.,-1.96261557335E-016)) ;
#343=DIRECTION('Axis2P3D Direction',(2.44929359829E-016,1.22464679915E-016,-1.)) ;
#352=DIRECTION('Axis2P3D Direction',(2.44929359829E-016,1.22464679915E-016,-1.)) ;
#362=DIRECTION('Axis2P3D Direction',(2.44929359829E-016,1.22464679915E-016,-1.)) ;
#363=DIRECTION('Axis2P3D XDirection',(0.755089277541,0.655621981741,2.65234069501E-016)) ;
#367=DIRECTION('Vector Direction',(0.,0.,-1.)) ;
#374=DIRECTION('Axis2P3D Direction',(2.44929359829E-016,1.22464679915E-016,-1.)) ;
#386=DIRECTION('Axis2P3D Direction',(2.44929359829E-016,1.22464679915E-016,-1.)) ;
#387=DIRECTION('Axis2P3D XDirection',(-1.,-6.12323399574E-017,-2.44929359829E-016)) ;
#391=DIRECTION('Vector Direction',(-1.,0.,-2.31497503452E-016)) ;
#396=DIRECTION('Axis2P3D Direction',(2.44929359829E-016,1.22464679915E-016,-1.)) ;
#403=DIRECTION('Axis2P3D Direction',(2.44929359829E-016,1.22464679915E-016,-1.)) ;
#410=DIRECTION('Vector Direction',(0.199367934417,0.979924704621,1.78202242997E-016)) ;
#425=DIRECTION('Axis2P3D Direction',(2.44929359829E-016,1.22464679915E-016,-1.)) ;
#434=DIRECTION('Axis2P3D Direction',(2.44929359829E-016,1.22464679915E-016,-1.)) ;
#451=DIRECTION('Axis2P3D Direction',(2.44929359829E-016,1.22464679915E-016,-1.)) ;
#452=DIRECTION('Axis2P3D XDirection',(-0.755096429556,-0.655613744572,-2.65234812477E-016)) ;
#456=DIRECTION('Vector Direction',(0.,0.,-1.)) ;
#468=DIRECTION('Axis2P3D Direction',(2.44929359829E-016,1.22464679915E-016,-1.)) ;
#469=DIRECTION('Axis2P3D XDirection',(-0.979924704621,0.199367934417,-2.1559680031E-016)) ;
#473=DIRECTION('Vector Direction',(0.,0.,-1.)) ;
#485=DIRECTION('Axis2P3D Direction',(-0.979924704621,0.199367934417,-2.1559680031E-016)) ;
#486=DIRECTION('Axis2P3D XDirection',(0.199367934417,0.979924704621,1.68837225839E-016)) ;
#497=DIRECTION('Axis2P3D Direction',(2.44929359829E-016,1.22464679915E-016,-1.)) ;
#498=DIRECTION('Axis2P3D XDirection',(-1.,-6.12323399574E-017,-2.44929359829E-016)) ;
#502=DIRECTION('Vector Direction',(0.,0.,-1.)) ;
#507=DIRECTION('Vector Direction',(0.,0.,-1.)) ;
#30=PRESENTATION_LAYER_ASSIGNMENT('1',' ',(#21)) ;
#8=PRODUCT_RELATED_PRODUCT_CATEGORY('part',$,(#5)) ;
#7=PRODUCT_CATEGORY('part','specification') ;
#29=STYLED_ITEM(' ',(#28),#21) ;
#28=PRESENTATION_STYLE_ASSIGNMENT((#27)) ;
#78=PRESENTATION_STYLE_ASSIGNMENT((#77)) ;
#27=SURFACE_STYLE_USAGE(.BOTH.,#26) ;
#77=SURFACE_STYLE_USAGE(.BOTH.,#76) ;
#26=SURFACE_SIDE_STYLE(' ',(#25)) ;
#76=SURFACE_SIDE_STYLE(' ',(#75)) ;
#25=SURFACE_STYLE_FILL_AREA(#24) ;
#75=SURFACE_STYLE_FILL_AREA(#74) ;
#24=FILL_AREA_STYLE(' ',(#23)) ;
#74=FILL_AREA_STYLE(' ',(#73)) ;
#23=FILL_AREA_STYLE_COLOUR(' ',#22) ;
#73=FILL_AREA_STYLE_COLOUR(' ',#72) ;
#39=VECTOR('Line Direction',#38,1.) ;
#55=VECTOR('Line Direction',#54,1.) ;
#118=VECTOR('Line Direction',#117,1.) ;
#125=VECTOR('Line Direction',#124,1.) ;
#132=VECTOR('Line Direction',#131,1.) ;
#160=VECTOR('Line Direction',#159,1.) ;
#167=VECTOR('Line Direction',#166,1.) ;
#174=VECTOR('Line Direction',#173,1.) ;
#227=VECTOR('Line Direction',#226,1.) ;
#242=VECTOR('Line Direction',#241,1.) ;
#272=VECTOR('Line Direction',#271,1.) ;
#279=VECTOR('Line Direction',#278,1.) ;
#286=VECTOR('Line Direction',#285,1.) ;
#303=VECTOR('Line Direction',#302,1.) ;
#329=VECTOR('Line Direction',#328,1.) ;
#368=VECTOR('Line Direction',#367,1.) ;
#392=VECTOR('Line Direction',#391,1.) ;
#411=VECTOR('Line Direction',#410,1.) ;
#457=VECTOR('Line Direction',#456,1.) ;
#474=VECTOR('Line Direction',#473,1.) ;
#503=VECTOR('Line Direction',#502,1.) ;
#508=VECTOR('Line Direction',#507,1.) ;
#15=UNCERTAINTY_MEASURE_WITH_UNIT(LENGTH_MEASURE(0.005),#12,'distance_accuracy_value','CONFUSED CURVE UNCERTAINTY') ;
#526=SHAPE_REPRESENTATION_RELATIONSHIP(' ',' ',#19,#525) ;
#66=ORIENTED_EDGE('',*,*,#45,.F.) ;
#67=ORIENTED_EDGE('',*,*,#52,.T.) ;
#68=ORIENTED_EDGE('',*,*,#59,.T.) ;
#69=ORIENTED_EDGE('',*,*,#64,.F.) ;
#91=ORIENTED_EDGE('',*,*,#59,.F.) ;
#92=ORIENTED_EDGE('',*,*,#84,.T.) ;
#93=ORIENTED_EDGE('',*,*,#45,.T.) ;
#94=ORIENTED_EDGE('',*,*,#89,.F.) ;
#104=ORIENTED_EDGE('',*,*,#84,.F.) ;
#105=ORIENTED_EDGE('',*,*,#52,.F.) ;
#178=ORIENTED_EDGE('',*,*,#115,.T.) ;
#179=ORIENTED_EDGE('',*,*,#122,.F.) ;
#180=ORIENTED_EDGE('',*,*,#129,.F.) ;
#181=ORIENTED_EDGE('',*,*,#136,.T.) ;
#182=ORIENTED_EDGE('',*,*,#143,.T.) ;
#183=ORIENTED_EDGE('',*,*,#150,.T.) ;
#184=ORIENTED_EDGE('',*,*,#157,.T.) ;
#185=ORIENTED_EDGE('',*,*,#164,.T.) ;
#186=ORIENTED_EDGE('',*,*,#171,.T.) ;
#187=ORIENTED_EDGE('',*,*,#176,.F.) ;
#197=ORIENTED_EDGE('',*,*,#64,.T.) ;
#198=ORIENTED_EDGE('',*,*,#89,.T.) ;
#215=ORIENTED_EDGE('',*,*,#208,.F.) ;
#216=ORIENTED_EDGE('',*,*,#213,.F.) ;
#246=ORIENTED_EDGE('',*,*,#208,.T.) ;
#247=ORIENTED_EDGE('',*,*,#229,.F.) ;
#248=ORIENTED_EDGE('',*,*,#143,.F.) ;
#249=ORIENTED_EDGE('',*,*,#234,.F.) ;
#250=ORIENTED_EDGE('',*,*,#115,.F.) ;
#251=ORIENTED_EDGE('',*,*,#239,.F.) ;
#252=ORIENTED_EDGE('',*,*,#157,.F.) ;
#253=ORIENTED_EDGE('',*,*,#244,.T.) ;
#258=ORIENTED_EDGE('',*,*,#213,.T.) ;
#259=ORIENTED_EDGE('',*,*,#244,.F.) ;
#260=ORIENTED_EDGE('',*,*,#150,.F.) ;
#261=ORIENTED_EDGE('',*,*,#229,.T.) ;
#290=ORIENTED_EDGE('',*,*,#171,.F.) ;
#291=ORIENTED_EDGE('',*,*,#276,.T.) ;
#292=ORIENTED_EDGE('',*,*,#283,.T.) ;
#293=ORIENTED_EDGE('',*,*,#288,.F.) ;
#333=ORIENTED_EDGE('',*,*,#307,.F.) ;
#334=ORIENTED_EDGE('',*,*,#314,.F.) ;
#335=ORIENTED_EDGE('',*,*,#321,.F.) ;
#336=ORIENTED_EDGE('',*,*,#326,.F.) ;
#337=ORIENTED_EDGE('',*,*,#276,.F.) ;
#338=ORIENTED_EDGE('',*,*,#164,.F.) ;
#339=ORIENTED_EDGE('',*,*,#331,.F.) ;
#340=ORIENTED_EDGE('',*,*,#136,.F.) ;
#357=ORIENTED_EDGE('',*,*,#350,.F.) ;
#358=ORIENTED_EDGE('',*,*,#355,.F.) ;
#379=ORIENTED_EDGE('',*,*,#283,.F.) ;
#380=ORIENTED_EDGE('',*,*,#326,.T.) ;
#381=ORIENTED_EDGE('',*,*,#372,.T.) ;
#382=ORIENTED_EDGE('',*,*,#377,.F.) ;
#415=ORIENTED_EDGE('',*,*,#122,.T.) ;
#416=ORIENTED_EDGE('',*,*,#394,.T.) ;
#417=ORIENTED_EDGE('',*,*,#176,.T.) ;
#418=ORIENTED_EDGE('',*,*,#288,.T.) ;
#419=ORIENTED_EDGE('',*,*,#377,.T.) ;
#420=ORIENTED_EDGE('',*,*,#401,.T.) ;
#421=ORIENTED_EDGE('',*,*,#408,.T.) ;
#422=ORIENTED_EDGE('',*,*,#413,.T.) ;
#439=ORIENTED_EDGE('',*,*,#432,.T.) ;
#440=ORIENTED_EDGE('',*,*,#437,.T.) ;
#444=ORIENTED_EDGE('',*,*,#239,.T.) ;
#445=ORIENTED_EDGE('',*,*,#394,.F.) ;
#446=ORIENTED_EDGE('',*,*,#234,.T.) ;
#447=ORIENTED_EDGE('',*,*,#331,.T.) ;
#461=ORIENTED_EDGE('',*,*,#372,.F.) ;
#462=ORIENTED_EDGE('',*,*,#321,.T.) ;
#463=ORIENTED_EDGE('',*,*,#459,.T.) ;
#464=ORIENTED_EDGE('',*,*,#401,.F.) ;
#478=ORIENTED_EDGE('',*,*,#459,.F.) ;
#479=ORIENTED_EDGE('',*,*,#314,.T.) ;
#480=ORIENTED_EDGE('',*,*,#476,.T.) ;
#481=ORIENTED_EDGE('',*,*,#408,.F.) ;
#490=ORIENTED_EDGE('',*,*,#476,.F.) ;
#491=ORIENTED_EDGE('',*,*,#307,.T.) ;
#492=ORIENTED_EDGE('',*,*,#129,.T.) ;
#493=ORIENTED_EDGE('',*,*,#413,.F.) ;
#512=ORIENTED_EDGE('',*,*,#505,.F.) ;
#513=ORIENTED_EDGE('',*,*,#355,.T.) ;
#514=ORIENTED_EDGE('',*,*,#510,.T.) ;
#515=ORIENTED_EDGE('',*,*,#432,.F.) ;
#519=ORIENTED_EDGE('',*,*,#510,.F.) ;
#520=ORIENTED_EDGE('',*,*,#350,.T.) ;
#521=ORIENTED_EDGE('',*,*,#505,.T.) ;
#522=ORIENTED_EDGE('',*,*,#437,.F.) ;
#188=FACE_BOUND('',#177,.T.) ;
#217=FACE_BOUND('',#214,.T.) ;
#359=FACE_BOUND('',#356,.T.) ;
#441=FACE_BOUND('',#438,.T.) ;
#31=CLOSED_SHELL('Closed Shell',(#71,#96,#189,#218,#255,#263,#295,#360,#384,#442,#449,#466,#483,#495,#517,#524)) ;
#525=ADVANCED_BREP_SHAPE_REPRESENTATION('NONE',(#21),#16) ;
#71=ADVANCED_FACE('K\X2\00F6\X0\rper.3',(#70),#36,.T.) ;
#96=ADVANCED_FACE('K\X2\00F6\X0\rper.3',(#95),#36,.T.) ;
#189=ADVANCED_FACE('K\X2\00F6\X0\rper.3',(#106,#188),#102,.F.) ;
#218=ADVANCED_FACE('K\X2\00F6\X0\rper.3',(#199,#217),#195,.T.) ;
#255=ADVANCED_FACE('K\X2\00F6\X0\rper.3',(#254),#224,.F.) ;
#263=ADVANCED_FACE('K\X2\00F6\X0\rper.3',(#262),#224,.F.) ;
#295=ADVANCED_FACE('K\X2\00F6\X0\rper.3',(#294),#269,.T.) ;
#360=ADVANCED_FACE('K\X2\00F6\X0\rper.3',(#341,#359),#300,.F.) ;
#384=ADVANCED_FACE('K\X2\00F6\X0\rper.3',(#383),#365,.F.) ;
#442=ADVANCED_FACE('K\X2\00F6\X0\rper.3',(#423,#441),#389,.T.) ;
#449=ADVANCED_FACE('K\X2\00F6\X0\rper.3',(#448),#102,.T.) ;
#466=ADVANCED_FACE('K\X2\00F6\X0\rper.3',(#465),#454,.T.) ;
#483=ADVANCED_FACE('K\X2\00F6\X0\rper.3',(#482),#471,.F.) ;
#495=ADVANCED_FACE('K\X2\00F6\X0\rper.3',(#494),#488,.F.) ;
#517=ADVANCED_FACE('K\X2\00F6\X0\rper.3',(#516),#500,.F.) ;
#524=ADVANCED_FACE('K\X2\00F6\X0\rper.3',(#523),#500,.F.) ;
#4=APPLICATION_PROTOCOL_DEFINITION('international standard','automotive_design',2001,#1) ;
#21=MANIFOLD_SOLID_BREP('K\X2\00F6\X0\rper.3',#31) ;
#49=CIRCLE('generated circle',#48,1.9) ;
#63=CIRCLE('generated circle',#62,1.9) ;
#83=CIRCLE('generated circle',#82,1.9) ;
#88=CIRCLE('generated circle',#87,1.9) ;
#110=CIRCLE('generated circle',#109,1.2) ;
#140=CIRCLE('generated circle',#139,1.2) ;
#147=CIRCLE('generated circle',#146,1.2) ;
#154=CIRCLE('generated circle',#153,1.2) ;
#203=CIRCLE('generated circle',#202,1.2) ;
#212=CIRCLE('generated circle',#211,1.2) ;
#233=CIRCLE('generated circle',#232,1.2) ;
#238=CIRCLE('generated circle',#237,1.2) ;
#311=CIRCLE('generated circle',#310,4.) ;
#318=CIRCLE('generated circle',#317,4.) ;
#325=CIRCLE('generated circle',#324,4.) ;
#345=CIRCLE('generated circle',#344,2.65) ;
#354=CIRCLE('generated circle',#353,2.65) ;
#376=CIRCLE('generated circle',#375,4.) ;
#398=CIRCLE('generated circle',#397,4.) ;
#405=CIRCLE('generated circle',#404,4.) ;
#427=CIRCLE('generated circle',#426,2.65) ;
#436=CIRCLE('generated circle',#435,2.65) ;
#22=COLOUR_RGB('Colour',0.823529411765,0.823529411765,1.) ;
#79=OVER_RIDING_STYLED_ITEM(' ',(#78),#71,#29) ;
#97=OVER_RIDING_STYLED_ITEM(' ',(#78),#96,#29) ;
#190=OVER_RIDING_STYLED_ITEM(' ',(#78),#189,#29) ;
#219=OVER_RIDING_STYLED_ITEM(' ',(#78),#218,#29) ;
#256=OVER_RIDING_STYLED_ITEM(' ',(#78),#255,#29) ;
#264=OVER_RIDING_STYLED_ITEM(' ',(#78),#263,#29) ;
#36=CYLINDRICAL_SURFACE('generated cylinder',#35,1.9) ;
#224=CYLINDRICAL_SURFACE('generated cylinder',#223,1.2) ;
#365=CYLINDRICAL_SURFACE('generated cylinder',#364,4.) ;
#454=CYLINDRICAL_SURFACE('generated cylinder',#453,4.) ;
#471=CYLINDRICAL_SURFACE('generated cylinder',#470,4.) ;
#500=CYLINDRICAL_SURFACE('generated cylinder',#499,2.65) ;
#72=DRAUGHTING_PRE_DEFINED_COLOUR('red') ;
#45=EDGE_CURVE('',#42,#44,#40,.T.) ;
#52=EDGE_CURVE('',#42,#51,#49,.T.) ;
#59=EDGE_CURVE('',#51,#58,#56,.T.) ;
#64=EDGE_CURVE('',#44,#58,#63,.T.) ;
#84=EDGE_CURVE('',#51,#42,#83,.T.) ;
#89=EDGE_CURVE('',#58,#44,#88,.T.) ;
#115=EDGE_CURVE('',#112,#114,#110,.T.) ;
#122=EDGE_CURVE('',#121,#114,#119,.T.) ;
#129=EDGE_CURVE('',#128,#121,#126,.T.) ;
#136=EDGE_CURVE('',#128,#135,#133,.T.) ;
#143=EDGE_CURVE('',#135,#142,#140,.T.) ;
#150=EDGE_CURVE('',#142,#149,#147,.T.) ;
#157=EDGE_CURVE('',#149,#156,#154,.T.) ;
#164=EDGE_CURVE('',#156,#163,#161,.T.) ;
#171=EDGE_CURVE('',#163,#170,#168,.T.) ;
#176=EDGE_CURVE('',#112,#170,#175,.T.) ;
#208=EDGE_CURVE('',#205,#207,#203,.T.) ;
#213=EDGE_CURVE('',#207,#205,#212,.T.) ;
#229=EDGE_CURVE('',#142,#207,#228,.T.) ;
#234=EDGE_CURVE('',#114,#135,#233,.T.) ;
#239=EDGE_CURVE('',#156,#112,#238,.T.) ;
#244=EDGE_CURVE('',#149,#205,#243,.T.) ;
#276=EDGE_CURVE('',#163,#275,#273,.T.) ;
#283=EDGE_CURVE('',#275,#282,#280,.T.) ;
#288=EDGE_CURVE('',#170,#282,#287,.T.) ;
#307=EDGE_CURVE('',#306,#128,#304,.F.) ;
#314=EDGE_CURVE('',#313,#306,#311,.F.) ;
#321=EDGE_CURVE('',#320,#313,#318,.T.) ;
#326=EDGE_CURVE('',#275,#320,#325,.F.) ;
#331=EDGE_CURVE('',#135,#156,#330,.T.) ;
#350=EDGE_CURVE('',#347,#349,#345,.F.) ;
#355=EDGE_CURVE('',#349,#347,#354,.F.) ;
#372=EDGE_CURVE('',#320,#371,#369,.T.) ;
#377=EDGE_CURVE('',#282,#371,#376,.F.) ;
#394=EDGE_CURVE('',#114,#112,#393,.T.) ;
#401=EDGE_CURVE('',#371,#400,#398,.T.) ;
#408=EDGE_CURVE('',#400,#407,#405,.F.) ;
#413=EDGE_CURVE('',#407,#121,#412,.F.) ;
#432=EDGE_CURVE('',#429,#431,#427,.F.) ;
#437=EDGE_CURVE('',#431,#429,#436,.F.) ;
#459=EDGE_CURVE('',#313,#400,#458,.T.) ;
#476=EDGE_CURVE('',#306,#407,#475,.T.) ;
#505=EDGE_CURVE('',#349,#429,#504,.T.) ;
#510=EDGE_CURVE('',#347,#431,#509,.T.) ;
#65=EDGE_LOOP('',(#66,#67,#68,#69)) ;
#90=EDGE_LOOP('',(#91,#92,#93,#94)) ;
#103=EDGE_LOOP('',(#104,#105)) ;
#177=EDGE_LOOP('',(#178,#179,#180,#181,#182,#183,#184,#185,#186,#187)) ;
#196=EDGE_LOOP('',(#197,#198)) ;
#214=EDGE_LOOP('',(#215,#216)) ;
#245=EDGE_LOOP('',(#246,#247,#248,#249,#250,#251,#252,#253)) ;
#257=EDGE_LOOP('',(#258,#259,#260,#261)) ;
#289=EDGE_LOOP('',(#290,#291,#292,#293)) ;
#332=EDGE_LOOP('',(#333,#334,#335,#336,#337,#338,#339,#340)) ;
#356=EDGE_LOOP('',(#357,#358)) ;
#378=EDGE_LOOP('',(#379,#380,#381,#382)) ;
#414=EDGE_LOOP('',(#415,#416,#417,#418,#419,#420,#421,#422)) ;
#438=EDGE_LOOP('',(#439,#440)) ;
#443=EDGE_LOOP('',(#444,#445,#446,#447)) ;
#460=EDGE_LOOP('',(#461,#462,#463,#464)) ;
#477=EDGE_LOOP('',(#478,#479,#480,#481)) ;
#489=EDGE_LOOP('',(#490,#491,#492,#493)) ;
#511=EDGE_LOOP('',(#512,#513,#514,#515)) ;
#518=EDGE_LOOP('',(#519,#520,#521,#522)) ;
#70=FACE_OUTER_BOUND('',#65,.T.) ;
#95=FACE_OUTER_BOUND('',#90,.T.) ;
#106=FACE_OUTER_BOUND('',#103,.T.) ;
#199=FACE_OUTER_BOUND('',#196,.T.) ;
#254=FACE_OUTER_BOUND('',#245,.T.) ;
#262=FACE_OUTER_BOUND('',#257,.T.) ;
#294=FACE_OUTER_BOUND('',#289,.T.) ;
#341=FACE_OUTER_BOUND('',#332,.T.) ;
#383=FACE_OUTER_BOUND('',#378,.T.) ;
#423=FACE_OUTER_BOUND('',#414,.T.) ;
#448=FACE_OUTER_BOUND('',#443,.T.) ;
#465=FACE_OUTER_BOUND('',#460,.T.) ;
#482=FACE_OUTER_BOUND('',#477,.T.) ;
#494=FACE_OUTER_BOUND('',#489,.T.) ;
#516=FACE_OUTER_BOUND('',#511,.T.) ;
#523=FACE_OUTER_BOUND('',#518,.T.) ;
#40=LINE('Line',#37,#39) ;
#56=LINE('Line',#53,#55) ;
#119=LINE('Line',#116,#118) ;
#126=LINE('Line',#123,#125) ;
#133=LINE('Line',#130,#132) ;
#161=LINE('Line',#158,#160) ;
#168=LINE('Line',#165,#167) ;
#175=LINE('Line',#172,#174) ;
#228=LINE('Line',#225,#227) ;
#243=LINE('Line',#240,#242) ;
#273=LINE('Line',#270,#272) ;
#280=LINE('Line',#277,#279) ;
#287=LINE('Line',#284,#286) ;
#304=LINE('Line',#301,#303) ;
#330=LINE('Line',#327,#329) ;
#369=LINE('Line',#366,#368) ;
#393=LINE('Line',#390,#392) ;
#412=LINE('Line',#409,#411) ;
#458=LINE('Line',#455,#457) ;
#475=LINE('Line',#472,#474) ;
#504=LINE('Line',#501,#503) ;
#509=LINE('Line',#506,#508) ;
#102=PLANE('',#101) ;
#195=PLANE('',#194) ;
#269=PLANE('',#268) ;
#300=PLANE('',#299) ;
#389=PLANE('',#388) ;
#488=PLANE('',#487) ;
#9=PRODUCT_CATEGORY_RELATIONSHIP(' ',' ',#7,#8) ;
#6=PRODUCT_DEFINITION_FORMATION_WITH_SPECIFIED_SOURCE('',' ',#5,.NOT_KNOWN.) ;
#20=SHAPE_DEFINITION_REPRESENTATION(#11,#19) ;
#42=VERTEX_POINT('',#41) ;
#44=VERTEX_POINT('',#43) ;
#51=VERTEX_POINT('',#50) ;
#58=VERTEX_POINT('',#57) ;
#112=VERTEX_POINT('',#111) ;
#114=VERTEX_POINT('',#113) ;
#121=VERTEX_POINT('',#120) ;
#128=VERTEX_POINT('',#127) ;
#135=VERTEX_POINT('',#134) ;
#142=VERTEX_POINT('',#141) ;
#149=VERTEX_POINT('',#148) ;
#156=VERTEX_POINT('',#155) ;
#163=VERTEX_POINT('',#162) ;
#170=VERTEX_POINT('',#169) ;
#205=VERTEX_POINT('',#204) ;
#207=VERTEX_POINT('',#206) ;
#275=VERTEX_POINT('',#274) ;
#282=VERTEX_POINT('',#281) ;
#306=VERTEX_POINT('',#305) ;
#313=VERTEX_POINT('',#312) ;
#320=VERTEX_POINT('',#319) ;
#347=VERTEX_POINT('',#346) ;
#349=VERTEX_POINT('',#348) ;
#371=VERTEX_POINT('',#370) ;
#400=VERTEX_POINT('',#399) ;
#407=VERTEX_POINT('',#406) ;
#429=VERTEX_POINT('',#428) ;
#431=VERTEX_POINT('',#430) ;
#12=(LENGTH_UNIT()NAMED_UNIT(*)SI_UNIT(.MILLI.,.METRE.)) ;
#13=(NAMED_UNIT(*)PLANE_ANGLE_UNIT()SI_UNIT($,.RADIAN.)) ;
#14=(NAMED_UNIT(*)SI_UNIT($,.STERADIAN.)SOLID_ANGLE_UNIT()) ;
#16=(GEOMETRIC_REPRESENTATION_CONTEXT(3)GLOBAL_UNCERTAINTY_ASSIGNED_CONTEXT((#15))GLOBAL_UNIT_ASSIGNED_CONTEXT((#12,#13,#14))REPRESENTATION_CONTEXT(' ',' ')) ;
ENDSEC;
END-ISO-10303-21;
