ISO-10303-21;
HEADER;
FILE_DESCRIPTION(('CATIA V5 STEP Exchange','CAx-IF Rec.Pracs.--- Model Styling and Organization---1.4--- 2014-01-23'),'2;1');

FILE_NAME ('001033-4_0_0123600000_0123600000_S.stp','2021-05-07T10:33:34+00:00',('none'),('Weidmueller'),'CATIA Version 5-6 Release 2016 SP3 HF44','CATIA V5 STEP AP214','none');

FILE_SCHEMA(('AUTOMOTIVE_DESIGN { 1 0 10303 214 1 1 1 1 }'));

ENDSEC;
DATA;
#5=PRODUCT('QL 2 SAK35','','<Q-CHECKER_SEAL> Q-Checker Version 2.14.8  \X2\000A\X0\CATIA-Version         : Catia V5 R19 SP5 Build Date 07-20-2009.19.00\X2\000A\X0\Model size (in KByte) : 0\X2\000A\X0\Checking date         : 2012-01-30 13:54:01\X2\000A\X0\Checking profile      : ADMIN / Release_2D-3D [CATPart]\X2\000A\X0\Model assessment      : In Ordnung (IO)\X2\000A\X0\Total weight sum      : 0\X2\000A\X0\<CROSS_CHECK_SUM>\X2\000A\X0\  <CHKSUM_DATE> -973189691 </CHKSUM_DATE>\X2\000A\X0\  <CHKSUM_ENTITIES> 1290162179 </CHKSUM_ENTITIES>\X2\000A\X0\  <CHKSUM_PROFILE> 1594213346 </CHKSUM_PROFILE>\X2\000A\X0\  <CHKSUM_DIMENSION> -186917087 </CHKSUM_DIMENSION>\X2\000A\X0\  <CHKSUM_PROJINTERSEC> -896974048 </CHKSUM_PROJINTERSEC>\X2\000A\X0\  <CHKSUM_IDENTCRV> -896974048 </CHKSUM_IDENTCRV>\X2\000A\X0\  <CHKSUM_INFINITY> 138018827 </CHKSUM_INFINITY>\X2\000A\X0\</CROSS_CHECK_SUM>\X2\000A\X0\</Q-CHECKER_SEAL> \X2\000A\X0\ \X2\000A\X0\ \X2\000A\X0\',(#2)) ;
#2=PRODUCT_CONTEXT(' ',#1,'mechanical') ;
#1=APPLICATION_CONTEXT('automotive design') ;
#10=PRODUCT_DEFINITION('',' ',#6,#3) ;
#3=PRODUCT_DEFINITION_CONTEXT('part definition',#1,' ') ;
#11=PRODUCT_DEFINITION_SHAPE(' ',' ',#10) ;
#455=MECHANICAL_DESIGN_GEOMETRIC_PRESENTATION_REPRESENTATION(' ',(#29),#16) ;
#456=MECHANICAL_DESIGN_GEOMETRIC_PRESENTATION_REPRESENTATION(' ',(#452),#16) ;
#19=SHAPE_REPRESENTATION(' ',(#18),#16) ;
#18=AXIS2_PLACEMENT_3D(' ',#17,$,$) ;
#35=AXIS2_PLACEMENT_3D('Plane Axis2P3D',#32,#33,#34) ;
#75=AXIS2_PLACEMENT_3D('Cylinder Axis2P3D',#72,#73,#74) ;
#79=AXIS2_PLACEMENT_3D('Circle Axis2P3D',#77,#78,$) ;
#86=AXIS2_PLACEMENT_3D('Circle Axis2P3D',#84,#85,$) ;
#106=AXIS2_PLACEMENT_3D('Plane Axis2P3D',#103,#104,#105) ;
#137=AXIS2_PLACEMENT_3D('Plane Axis2P3D',#134,#135,#136) ;
#177=AXIS2_PLACEMENT_3D('Plane Axis2P3D',#174,#175,#176) ;
#208=AXIS2_PLACEMENT_3D('Plane Axis2P3D',#205,#206,#207) ;
#239=AXIS2_PLACEMENT_3D('Plane Axis2P3D',#236,#237,#238) ;
#261=AXIS2_PLACEMENT_3D('Cylinder Axis2P3D',#258,#259,#260) ;
#265=AXIS2_PLACEMENT_3D('Circle Axis2P3D',#263,#264,$) ;
#270=AXIS2_PLACEMENT_3D('Circle Axis2P3D',#268,#269,$) ;
#283=AXIS2_PLACEMENT_3D('Plane Axis2P3D',#280,#281,#282) ;
#293=AXIS2_PLACEMENT_3D('Circle Axis2P3D',#291,#292,$) ;
#309=AXIS2_PLACEMENT_3D('Circle Axis2P3D',#307,#308,$) ;
#335=AXIS2_PLACEMENT_3D('Plane Axis2P3D',#332,#333,#334) ;
#345=AXIS2_PLACEMENT_3D('Circle Axis2P3D',#343,#344,$) ;
#361=AXIS2_PLACEMENT_3D('Circle Axis2P3D',#359,#360,$) ;
#387=AXIS2_PLACEMENT_3D('Cylinder Axis2P3D',#384,#385,#386) ;
#433=AXIS2_PLACEMENT_3D('Cylinder Axis2P3D',#430,#431,#432) ;
#447=AXIS2_PLACEMENT_3D('Axis System.1',#444,#445,#446) ;
#17=CARTESIAN_POINT(' ',(0.,0.,0.)) ;
#32=CARTESIAN_POINT('Axis2P3D Location',(4.6,6.1,3.)) ;
#37=CARTESIAN_POINT('Line Origine',(5.,6.1,0.)) ;
#41=CARTESIAN_POINT('Vertex',(4.6,6.1,0.)) ;
#43=CARTESIAN_POINT('Vertex',(5.4,6.1,0.)) ;
#46=CARTESIAN_POINT('Line Origine',(5.4,6.1,1.5)) ;
#50=CARTESIAN_POINT('Vertex',(5.4,6.1,3.)) ;
#53=CARTESIAN_POINT('Line Origine',(5.,6.1,3.)) ;
#57=CARTESIAN_POINT('Vertex',(4.6,6.1,3.)) ;
#60=CARTESIAN_POINT('Line Origine',(4.6,6.1,1.5)) ;
#72=CARTESIAN_POINT('Axis2P3D Location',(4.6,4.,0.83999999994)) ;
#77=CARTESIAN_POINT('Axis2P3D Location',(4.6,4.,0.)) ;
#81=CARTESIAN_POINT('Vertex',(4.6,1.9,0.)) ;
#84=CARTESIAN_POINT('Axis2P3D Location',(4.6,4.,3.)) ;
#88=CARTESIAN_POINT('Vertex',(4.6,1.9,3.)) ;
#91=CARTESIAN_POINT('Line Origine',(4.6,1.9,0.83999999994)) ;
#103=CARTESIAN_POINT('Axis2P3D Location',(5.4,1.9,3.)) ;
#108=CARTESIAN_POINT('Line Origine',(5.,1.9,0.)) ;
#112=CARTESIAN_POINT('Vertex',(5.4,1.9,0.)) ;
#115=CARTESIAN_POINT('Line Origine',(5.,1.9,3.)) ;
#119=CARTESIAN_POINT('Vertex',(5.4,1.9,3.)) ;
#122=CARTESIAN_POINT('Line Origine',(5.4,1.9,1.5)) ;
#134=CARTESIAN_POINT('Axis2P3D Location',(0.,0.,0.)) ;
#139=CARTESIAN_POINT('Line Origine',(0.,0.,1.5)) ;
#143=CARTESIAN_POINT('Vertex',(0.,0.,0.)) ;
#145=CARTESIAN_POINT('Vertex',(0.,0.,3.)) ;
#148=CARTESIAN_POINT('Line Origine',(14.,0.,0.)) ;
#152=CARTESIAN_POINT('Vertex',(28.,0.,0.)) ;
#155=CARTESIAN_POINT('Line Origine',(28.,0.,1.5)) ;
#159=CARTESIAN_POINT('Vertex',(28.,0.,3.)) ;
#162=CARTESIAN_POINT('Line Origine',(14.,0.,3.)) ;
#174=CARTESIAN_POINT('Axis2P3D Location',(28.,1.42108547152E-014,0.)) ;
#179=CARTESIAN_POINT('Line Origine',(28.,4.,0.)) ;
#183=CARTESIAN_POINT('Vertex',(28.,8.,0.)) ;
#186=CARTESIAN_POINT('Line Origine',(28.,8.,1.5)) ;
#190=CARTESIAN_POINT('Vertex',(28.,8.,3.)) ;
#193=CARTESIAN_POINT('Line Origine',(28.,4.,3.)) ;
#205=CARTESIAN_POINT('Axis2P3D Location',(28.,8.,0.)) ;
#210=CARTESIAN_POINT('Line Origine',(14.,8.,0.)) ;
#214=CARTESIAN_POINT('Vertex',(0.,8.,0.)) ;
#217=CARTESIAN_POINT('Line Origine',(0.,8.,1.5)) ;
#221=CARTESIAN_POINT('Vertex',(0.,8.,3.)) ;
#224=CARTESIAN_POINT('Line Origine',(14.,8.,3.)) ;
#236=CARTESIAN_POINT('Axis2P3D Location',(0.,8.,0.)) ;
#241=CARTESIAN_POINT('Line Origine',(0.,4.,0.)) ;
#246=CARTESIAN_POINT('Line Origine',(0.,4.,3.)) ;
#258=CARTESIAN_POINT('Axis2P3D Location',(5.4,4.,0.83999999994)) ;
#263=CARTESIAN_POINT('Axis2P3D Location',(5.4,4.,0.)) ;
#268=CARTESIAN_POINT('Axis2P3D Location',(5.4,4.,3.)) ;
#280=CARTESIAN_POINT('Axis2P3D Location',(0.,0.,0.)) ;
#291=CARTESIAN_POINT('Axis2P3D Location',(23.4,4.,0.)) ;
#295=CARTESIAN_POINT('Vertex',(23.4,1.9,0.)) ;
#297=CARTESIAN_POINT('Vertex',(23.4,6.1,0.)) ;
#300=CARTESIAN_POINT('Line Origine',(23.,6.1,0.)) ;
#304=CARTESIAN_POINT('Vertex',(22.6,6.1,0.)) ;
#307=CARTESIAN_POINT('Axis2P3D Location',(22.6,4.,0.)) ;
#311=CARTESIAN_POINT('Vertex',(22.6,1.9,0.)) ;
#314=CARTESIAN_POINT('Line Origine',(23.,1.9,0.)) ;
#332=CARTESIAN_POINT('Axis2P3D Location',(0.,0.,3.)) ;
#343=CARTESIAN_POINT('Axis2P3D Location',(23.4,4.,3.)) ;
#347=CARTESIAN_POINT('Vertex',(23.4,1.9,3.)) ;
#349=CARTESIAN_POINT('Vertex',(23.4,6.1,3.)) ;
#352=CARTESIAN_POINT('Line Origine',(23.,1.9,3.)) ;
#356=CARTESIAN_POINT('Vertex',(22.6,1.9,3.)) ;
#359=CARTESIAN_POINT('Axis2P3D Location',(22.6,4.,3.)) ;
#363=CARTESIAN_POINT('Vertex',(22.6,6.1,3.)) ;
#366=CARTESIAN_POINT('Line Origine',(23.,6.1,3.)) ;
#384=CARTESIAN_POINT('Axis2P3D Location',(22.6,4.,0.83999999994)) ;
#389=CARTESIAN_POINT('Line Origine',(22.6,6.1,0.83999999994)) ;
#394=CARTESIAN_POINT('Line Origine',(22.6,1.9,0.83999999994)) ;
#406=CARTESIAN_POINT('Line Origine',(23.4,6.1,1.5)) ;
#418=CARTESIAN_POINT('Line Origine',(23.4,1.9,1.5)) ;
#430=CARTESIAN_POINT('Axis2P3D Location',(23.4,4.,0.83999999994)) ;
#444=CARTESIAN_POINT('Axis2P3D Location',(0.,0.,0.)) ;
#33=DIRECTION('Axis2P3D Direction',(-0.,1.,0.)) ;
#34=DIRECTION('Axis2P3D XDirection',(1.,0.,0.)) ;
#38=DIRECTION('Vector Direction',(1.,0.,0.)) ;
#47=DIRECTION('Vector Direction',(0.,0.,-1.)) ;
#54=DIRECTION('Vector Direction',(1.,0.,0.)) ;
#61=DIRECTION('Vector Direction',(0.,0.,-1.)) ;
#73=DIRECTION('Axis2P3D Direction',(0.,0.,1.)) ;
#74=DIRECTION('Axis2P3D XDirection',(6.12323399574E-017,1.,0.)) ;
#78=DIRECTION('Axis2P3D Direction',(0.,0.,1.)) ;
#85=DIRECTION('Axis2P3D Direction',(0.,0.,1.)) ;
#92=DIRECTION('Vector Direction',(0.,0.,1.)) ;
#104=DIRECTION('Axis2P3D Direction',(-0.,-1.,-0.)) ;
#105=DIRECTION('Axis2P3D XDirection',(-1.,0.,0.)) ;
#109=DIRECTION('Vector Direction',(-1.,0.,0.)) ;
#116=DIRECTION('Vector Direction',(-1.,0.,0.)) ;
#123=DIRECTION('Vector Direction',(0.,0.,-1.)) ;
#135=DIRECTION('Axis2P3D Direction',(0.,-1.,0.)) ;
#136=DIRECTION('Axis2P3D XDirection',(1.,0.,0.)) ;
#140=DIRECTION('Vector Direction',(0.,0.,1.)) ;
#149=DIRECTION('Vector Direction',(1.,0.,0.)) ;
#156=DIRECTION('Vector Direction',(0.,0.,1.)) ;
#163=DIRECTION('Vector Direction',(1.,0.,0.)) ;
#175=DIRECTION('Axis2P3D Direction',(1.,0.,0.)) ;
#176=DIRECTION('Axis2P3D XDirection',(0.,1.,0.)) ;
#180=DIRECTION('Vector Direction',(0.,1.,0.)) ;
#187=DIRECTION('Vector Direction',(0.,0.,1.)) ;
#194=DIRECTION('Vector Direction',(0.,1.,0.)) ;
#206=DIRECTION('Axis2P3D Direction',(0.,1.,-0.)) ;
#207=DIRECTION('Axis2P3D XDirection',(-1.,0.,0.)) ;
#211=DIRECTION('Vector Direction',(-1.,0.,0.)) ;
#218=DIRECTION('Vector Direction',(0.,0.,1.)) ;
#225=DIRECTION('Vector Direction',(-1.,0.,0.)) ;
#237=DIRECTION('Axis2P3D Direction',(-1.,0.,0.)) ;
#238=DIRECTION('Axis2P3D XDirection',(0.,-1.,0.)) ;
#242=DIRECTION('Vector Direction',(0.,-1.,0.)) ;
#247=DIRECTION('Vector Direction',(0.,-1.,0.)) ;
#259=DIRECTION('Axis2P3D Direction',(0.,0.,1.)) ;
#260=DIRECTION('Axis2P3D XDirection',(-1.83697019872E-016,-1.,-0.)) ;
#264=DIRECTION('Axis2P3D Direction',(0.,0.,1.)) ;
#269=DIRECTION('Axis2P3D Direction',(0.,0.,1.)) ;
#281=DIRECTION('Axis2P3D Direction',(0.,0.,1.)) ;
#282=DIRECTION('Axis2P3D XDirection',(1.,0.,0.)) ;
#292=DIRECTION('Axis2P3D Direction',(0.,0.,1.)) ;
#301=DIRECTION('Vector Direction',(1.,0.,0.)) ;
#308=DIRECTION('Axis2P3D Direction',(0.,0.,1.)) ;
#315=DIRECTION('Vector Direction',(-1.,0.,0.)) ;
#333=DIRECTION('Axis2P3D Direction',(0.,0.,1.)) ;
#334=DIRECTION('Axis2P3D XDirection',(1.,0.,0.)) ;
#344=DIRECTION('Axis2P3D Direction',(0.,0.,1.)) ;
#353=DIRECTION('Vector Direction',(-1.,0.,0.)) ;
#360=DIRECTION('Axis2P3D Direction',(0.,0.,1.)) ;
#367=DIRECTION('Vector Direction',(1.,0.,0.)) ;
#385=DIRECTION('Axis2P3D Direction',(0.,0.,1.)) ;
#386=DIRECTION('Axis2P3D XDirection',(6.12323399574E-017,1.,0.)) ;
#390=DIRECTION('Vector Direction',(0.,0.,1.)) ;
#395=DIRECTION('Vector Direction',(0.,0.,1.)) ;
#407=DIRECTION('Vector Direction',(0.,0.,-1.)) ;
#419=DIRECTION('Vector Direction',(0.,0.,-1.)) ;
#431=DIRECTION('Axis2P3D Direction',(0.,0.,1.)) ;
#432=DIRECTION('Axis2P3D XDirection',(-1.83697019872E-016,-1.,-0.)) ;
#445=DIRECTION('Axis2P3D Direction',(0.,0.,1.)) ;
#446=DIRECTION('Axis2P3D XDirection',(1.,0.,0.)) ;
#30=PRESENTATION_LAYER_ASSIGNMENT('1',' ',(#21)) ;
#8=PRODUCT_RELATED_PRODUCT_CATEGORY('part',$,(#5)) ;
#7=PRODUCT_CATEGORY('part','specification') ;
#29=STYLED_ITEM(' ',(#28),#21) ;
#452=STYLED_ITEM(' ',(#451),#447) ;
#28=PRESENTATION_STYLE_ASSIGNMENT((#27)) ;
#451=PRESENTATION_STYLE_ASSIGNMENT((#450)) ;
#450=CURVE_STYLE(' ',#448,POSITIVE_LENGTH_MEASURE(0.129999995232),#449) ;
#27=SURFACE_STYLE_USAGE(.BOTH.,#26) ;
#26=SURFACE_SIDE_STYLE(' ',(#25)) ;
#25=SURFACE_STYLE_FILL_AREA(#24) ;
#24=FILL_AREA_STYLE(' ',(#23)) ;
#23=FILL_AREA_STYLE_COLOUR(' ',#22) ;
#39=VECTOR('Line Direction',#38,1.) ;
#48=VECTOR('Line Direction',#47,1.) ;
#55=VECTOR('Line Direction',#54,1.) ;
#62=VECTOR('Line Direction',#61,1.) ;
#93=VECTOR('Line Direction',#92,1.) ;
#110=VECTOR('Line Direction',#109,1.) ;
#117=VECTOR('Line Direction',#116,1.) ;
#124=VECTOR('Line Direction',#123,1.) ;
#141=VECTOR('Line Direction',#140,1.) ;
#150=VECTOR('Line Direction',#149,1.) ;
#157=VECTOR('Line Direction',#156,1.) ;
#164=VECTOR('Line Direction',#163,1.) ;
#181=VECTOR('Line Direction',#180,1.) ;
#188=VECTOR('Line Direction',#187,1.) ;
#195=VECTOR('Line Direction',#194,1.) ;
#212=VECTOR('Line Direction',#211,1.) ;
#219=VECTOR('Line Direction',#218,1.) ;
#226=VECTOR('Line Direction',#225,1.) ;
#243=VECTOR('Line Direction',#242,1.) ;
#248=VECTOR('Line Direction',#247,1.) ;
#302=VECTOR('Line Direction',#301,1.) ;
#316=VECTOR('Line Direction',#315,1.) ;
#354=VECTOR('Line Direction',#353,1.) ;
#368=VECTOR('Line Direction',#367,1.) ;
#391=VECTOR('Line Direction',#390,1.) ;
#396=VECTOR('Line Direction',#395,1.) ;
#408=VECTOR('Line Direction',#407,1.) ;
#420=VECTOR('Line Direction',#419,1.) ;
#15=UNCERTAINTY_MEASURE_WITH_UNIT(LENGTH_MEASURE(0.005),#12,'distance_accuracy_value','CONFUSED CURVE UNCERTAINTY') ;
#443=SHAPE_REPRESENTATION_RELATIONSHIP(' ',' ',#19,#442) ;
#66=ORIENTED_EDGE('',*,*,#45,.T.) ;
#67=ORIENTED_EDGE('',*,*,#52,.F.) ;
#68=ORIENTED_EDGE('',*,*,#59,.T.) ;
#69=ORIENTED_EDGE('',*,*,#64,.T.) ;
#97=ORIENTED_EDGE('',*,*,#83,.F.) ;
#98=ORIENTED_EDGE('',*,*,#64,.F.) ;
#99=ORIENTED_EDGE('',*,*,#90,.T.) ;
#100=ORIENTED_EDGE('',*,*,#95,.T.) ;
#128=ORIENTED_EDGE('',*,*,#114,.T.) ;
#129=ORIENTED_EDGE('',*,*,#95,.F.) ;
#130=ORIENTED_EDGE('',*,*,#121,.T.) ;
#131=ORIENTED_EDGE('',*,*,#126,.T.) ;
#168=ORIENTED_EDGE('',*,*,#147,.F.) ;
#169=ORIENTED_EDGE('',*,*,#154,.T.) ;
#170=ORIENTED_EDGE('',*,*,#161,.T.) ;
#171=ORIENTED_EDGE('',*,*,#166,.F.) ;
#199=ORIENTED_EDGE('',*,*,#161,.F.) ;
#200=ORIENTED_EDGE('',*,*,#185,.T.) ;
#201=ORIENTED_EDGE('',*,*,#192,.T.) ;
#202=ORIENTED_EDGE('',*,*,#197,.F.) ;
#230=ORIENTED_EDGE('',*,*,#192,.F.) ;
#231=ORIENTED_EDGE('',*,*,#216,.T.) ;
#232=ORIENTED_EDGE('',*,*,#223,.T.) ;
#233=ORIENTED_EDGE('',*,*,#228,.F.) ;
#252=ORIENTED_EDGE('',*,*,#223,.F.) ;
#253=ORIENTED_EDGE('',*,*,#245,.T.) ;
#254=ORIENTED_EDGE('',*,*,#147,.T.) ;
#255=ORIENTED_EDGE('',*,*,#250,.F.) ;
#274=ORIENTED_EDGE('',*,*,#267,.F.) ;
#275=ORIENTED_EDGE('',*,*,#126,.F.) ;
#276=ORIENTED_EDGE('',*,*,#272,.T.) ;
#277=ORIENTED_EDGE('',*,*,#52,.T.) ;
#286=ORIENTED_EDGE('',*,*,#245,.F.) ;
#287=ORIENTED_EDGE('',*,*,#216,.F.) ;
#288=ORIENTED_EDGE('',*,*,#185,.F.) ;
#289=ORIENTED_EDGE('',*,*,#154,.F.) ;
#320=ORIENTED_EDGE('',*,*,#299,.T.) ;
#321=ORIENTED_EDGE('',*,*,#306,.F.) ;
#322=ORIENTED_EDGE('',*,*,#313,.T.) ;
#323=ORIENTED_EDGE('',*,*,#318,.F.) ;
#326=ORIENTED_EDGE('',*,*,#45,.F.) ;
#327=ORIENTED_EDGE('',*,*,#83,.T.) ;
#328=ORIENTED_EDGE('',*,*,#114,.F.) ;
#329=ORIENTED_EDGE('',*,*,#267,.T.) ;
#338=ORIENTED_EDGE('',*,*,#166,.T.) ;
#339=ORIENTED_EDGE('',*,*,#197,.T.) ;
#340=ORIENTED_EDGE('',*,*,#228,.T.) ;
#341=ORIENTED_EDGE('',*,*,#250,.T.) ;
#372=ORIENTED_EDGE('',*,*,#351,.F.) ;
#373=ORIENTED_EDGE('',*,*,#358,.F.) ;
#374=ORIENTED_EDGE('',*,*,#365,.F.) ;
#375=ORIENTED_EDGE('',*,*,#370,.F.) ;
#378=ORIENTED_EDGE('',*,*,#272,.F.) ;
#379=ORIENTED_EDGE('',*,*,#121,.F.) ;
#380=ORIENTED_EDGE('',*,*,#90,.F.) ;
#381=ORIENTED_EDGE('',*,*,#59,.F.) ;
#400=ORIENTED_EDGE('',*,*,#313,.F.) ;
#401=ORIENTED_EDGE('',*,*,#393,.F.) ;
#402=ORIENTED_EDGE('',*,*,#365,.T.) ;
#403=ORIENTED_EDGE('',*,*,#398,.T.) ;
#412=ORIENTED_EDGE('',*,*,#306,.T.) ;
#413=ORIENTED_EDGE('',*,*,#410,.F.) ;
#414=ORIENTED_EDGE('',*,*,#370,.T.) ;
#415=ORIENTED_EDGE('',*,*,#393,.T.) ;
#424=ORIENTED_EDGE('',*,*,#318,.T.) ;
#425=ORIENTED_EDGE('',*,*,#398,.F.) ;
#426=ORIENTED_EDGE('',*,*,#358,.T.) ;
#427=ORIENTED_EDGE('',*,*,#422,.T.) ;
#436=ORIENTED_EDGE('',*,*,#299,.F.) ;
#437=ORIENTED_EDGE('',*,*,#422,.F.) ;
#438=ORIENTED_EDGE('',*,*,#351,.T.) ;
#439=ORIENTED_EDGE('',*,*,#410,.T.) ;
#324=FACE_BOUND('',#319,.T.) ;
#330=FACE_BOUND('',#325,.T.) ;
#376=FACE_BOUND('',#371,.T.) ;
#382=FACE_BOUND('',#377,.T.) ;
#31=CLOSED_SHELL('Closed Shell',(#71,#102,#133,#173,#204,#235,#257,#279,#331,#383,#405,#417,#429,#441)) ;
#442=ADVANCED_BREP_SHAPE_REPRESENTATION('NONE',(#21),#16) ;
#71=ADVANCED_FACE('Body.3',(#70),#36,.F.) ;
#102=ADVANCED_FACE('Body.3',(#101),#76,.F.) ;
#133=ADVANCED_FACE('Body.3',(#132),#107,.F.) ;
#173=ADVANCED_FACE('Body.3',(#172),#138,.T.) ;
#204=ADVANCED_FACE('Body.3',(#203),#178,.T.) ;
#235=ADVANCED_FACE('Body.3',(#234),#209,.T.) ;
#257=ADVANCED_FACE('Body.3',(#256),#240,.T.) ;
#279=ADVANCED_FACE('Body.3',(#278),#262,.F.) ;
#331=ADVANCED_FACE('Body.3',(#290,#324,#330),#284,.F.) ;
#383=ADVANCED_FACE('Body.3',(#342,#376,#382),#336,.T.) ;
#405=ADVANCED_FACE('Body.3',(#404),#388,.F.) ;
#417=ADVANCED_FACE('Body.3',(#416),#36,.F.) ;
#429=ADVANCED_FACE('Body.3',(#428),#107,.F.) ;
#441=ADVANCED_FACE('Body.3',(#440),#434,.F.) ;
#4=APPLICATION_PROTOCOL_DEFINITION('international standard','automotive_design',2001,#1) ;
#21=MANIFOLD_SOLID_BREP('Body.3',#31) ;
#80=CIRCLE('generated circle',#79,2.1) ;
#87=CIRCLE('generated circle',#86,2.1) ;
#266=CIRCLE('generated circle',#265,2.1) ;
#271=CIRCLE('generated circle',#270,2.1) ;
#294=CIRCLE('generated circle',#293,2.1) ;
#310=CIRCLE('generated circle',#309,2.1) ;
#346=CIRCLE('generated circle',#345,2.1) ;
#362=CIRCLE('generated circle',#361,2.1) ;
#22=COLOUR_RGB('Colour',0.823529411765,0.823529411765,1.) ;
#453=CONSTRUCTIVE_GEOMETRY_REPRESENTATION('supplemental geometry',(#447),#16) ;
#454=CONSTRUCTIVE_GEOMETRY_REPRESENTATION_RELATIONSHIP('supplemental geometry','',#19,#453) ;
#76=CYLINDRICAL_SURFACE('generated cylinder',#75,2.1) ;
#262=CYLINDRICAL_SURFACE('generated cylinder',#261,2.1) ;
#388=CYLINDRICAL_SURFACE('generated cylinder',#387,2.1) ;
#434=CYLINDRICAL_SURFACE('generated cylinder',#433,2.1) ;
#449=DRAUGHTING_PRE_DEFINED_COLOUR('white') ;
#448=DRAUGHTING_PRE_DEFINED_CURVE_FONT('continuous') ;
#45=EDGE_CURVE('',#42,#44,#40,.T.) ;
#52=EDGE_CURVE('',#51,#44,#49,.T.) ;
#59=EDGE_CURVE('',#51,#58,#56,.F.) ;
#64=EDGE_CURVE('',#58,#42,#63,.T.) ;
#83=EDGE_CURVE('',#42,#82,#80,.T.) ;
#90=EDGE_CURVE('',#58,#89,#87,.T.) ;
#95=EDGE_CURVE('',#89,#82,#94,.F.) ;
#114=EDGE_CURVE('',#113,#82,#111,.T.) ;
#121=EDGE_CURVE('',#89,#120,#118,.F.) ;
#126=EDGE_CURVE('',#120,#113,#125,.T.) ;
#147=EDGE_CURVE('',#144,#146,#142,.T.) ;
#154=EDGE_CURVE('',#144,#153,#151,.T.) ;
#161=EDGE_CURVE('',#153,#160,#158,.T.) ;
#166=EDGE_CURVE('',#146,#160,#165,.T.) ;
#185=EDGE_CURVE('',#153,#184,#182,.T.) ;
#192=EDGE_CURVE('',#184,#191,#189,.T.) ;
#197=EDGE_CURVE('',#160,#191,#196,.T.) ;
#216=EDGE_CURVE('',#184,#215,#213,.T.) ;
#223=EDGE_CURVE('',#215,#222,#220,.T.) ;
#228=EDGE_CURVE('',#191,#222,#227,.T.) ;
#245=EDGE_CURVE('',#215,#144,#244,.T.) ;
#250=EDGE_CURVE('',#222,#146,#249,.T.) ;
#267=EDGE_CURVE('',#113,#44,#266,.T.) ;
#272=EDGE_CURVE('',#120,#51,#271,.T.) ;
#299=EDGE_CURVE('',#296,#298,#294,.T.) ;
#306=EDGE_CURVE('',#305,#298,#303,.T.) ;
#313=EDGE_CURVE('',#305,#312,#310,.T.) ;
#318=EDGE_CURVE('',#296,#312,#317,.T.) ;
#351=EDGE_CURVE('',#348,#350,#346,.T.) ;
#358=EDGE_CURVE('',#357,#348,#355,.F.) ;
#365=EDGE_CURVE('',#364,#357,#362,.T.) ;
#370=EDGE_CURVE('',#350,#364,#369,.F.) ;
#393=EDGE_CURVE('',#364,#305,#392,.F.) ;
#398=EDGE_CURVE('',#357,#312,#397,.F.) ;
#410=EDGE_CURVE('',#350,#298,#409,.T.) ;
#422=EDGE_CURVE('',#348,#296,#421,.T.) ;
#65=EDGE_LOOP('',(#66,#67,#68,#69)) ;
#96=EDGE_LOOP('',(#97,#98,#99,#100)) ;
#127=EDGE_LOOP('',(#128,#129,#130,#131)) ;
#167=EDGE_LOOP('',(#168,#169,#170,#171)) ;
#198=EDGE_LOOP('',(#199,#200,#201,#202)) ;
#229=EDGE_LOOP('',(#230,#231,#232,#233)) ;
#251=EDGE_LOOP('',(#252,#253,#254,#255)) ;
#273=EDGE_LOOP('',(#274,#275,#276,#277)) ;
#285=EDGE_LOOP('',(#286,#287,#288,#289)) ;
#319=EDGE_LOOP('',(#320,#321,#322,#323)) ;
#325=EDGE_LOOP('',(#326,#327,#328,#329)) ;
#337=EDGE_LOOP('',(#338,#339,#340,#341)) ;
#371=EDGE_LOOP('',(#372,#373,#374,#375)) ;
#377=EDGE_LOOP('',(#378,#379,#380,#381)) ;
#399=EDGE_LOOP('',(#400,#401,#402,#403)) ;
#411=EDGE_LOOP('',(#412,#413,#414,#415)) ;
#423=EDGE_LOOP('',(#424,#425,#426,#427)) ;
#435=EDGE_LOOP('',(#436,#437,#438,#439)) ;
#70=FACE_OUTER_BOUND('',#65,.T.) ;
#101=FACE_OUTER_BOUND('',#96,.T.) ;
#132=FACE_OUTER_BOUND('',#127,.T.) ;
#172=FACE_OUTER_BOUND('',#167,.T.) ;
#203=FACE_OUTER_BOUND('',#198,.T.) ;
#234=FACE_OUTER_BOUND('',#229,.T.) ;
#256=FACE_OUTER_BOUND('',#251,.T.) ;
#278=FACE_OUTER_BOUND('',#273,.T.) ;
#290=FACE_OUTER_BOUND('',#285,.T.) ;
#342=FACE_OUTER_BOUND('',#337,.T.) ;
#404=FACE_OUTER_BOUND('',#399,.T.) ;
#416=FACE_OUTER_BOUND('',#411,.T.) ;
#428=FACE_OUTER_BOUND('',#423,.T.) ;
#440=FACE_OUTER_BOUND('',#435,.T.) ;
#40=LINE('Line',#37,#39) ;
#49=LINE('Line',#46,#48) ;
#56=LINE('Line',#53,#55) ;
#63=LINE('Line',#60,#62) ;
#94=LINE('Line',#91,#93) ;
#111=LINE('Line',#108,#110) ;
#118=LINE('Line',#115,#117) ;
#125=LINE('Line',#122,#124) ;
#142=LINE('Line',#139,#141) ;
#151=LINE('Line',#148,#150) ;
#158=LINE('Line',#155,#157) ;
#165=LINE('Line',#162,#164) ;
#182=LINE('Line',#179,#181) ;
#189=LINE('Line',#186,#188) ;
#196=LINE('Line',#193,#195) ;
#213=LINE('Line',#210,#212) ;
#220=LINE('Line',#217,#219) ;
#227=LINE('Line',#224,#226) ;
#244=LINE('Line',#241,#243) ;
#249=LINE('Line',#246,#248) ;
#303=LINE('Line',#300,#302) ;
#317=LINE('Line',#314,#316) ;
#355=LINE('Line',#352,#354) ;
#369=LINE('Line',#366,#368) ;
#392=LINE('Line',#389,#391) ;
#397=LINE('Line',#394,#396) ;
#409=LINE('Line',#406,#408) ;
#421=LINE('Line',#418,#420) ;
#36=PLANE('',#35) ;
#107=PLANE('',#106) ;
#138=PLANE('',#137) ;
#178=PLANE('',#177) ;
#209=PLANE('',#208) ;
#240=PLANE('',#239) ;
#284=PLANE('',#283) ;
#336=PLANE('',#335) ;
#9=PRODUCT_CATEGORY_RELATIONSHIP(' ',' ',#7,#8) ;
#6=PRODUCT_DEFINITION_FORMATION_WITH_SPECIFIED_SOURCE('',' ',#5,.NOT_KNOWN.) ;
#20=SHAPE_DEFINITION_REPRESENTATION(#11,#19) ;
#42=VERTEX_POINT('',#41) ;
#44=VERTEX_POINT('',#43) ;
#51=VERTEX_POINT('',#50) ;
#58=VERTEX_POINT('',#57) ;
#82=VERTEX_POINT('',#81) ;
#89=VERTEX_POINT('',#88) ;
#113=VERTEX_POINT('',#112) ;
#120=VERTEX_POINT('',#119) ;
#144=VERTEX_POINT('',#143) ;
#146=VERTEX_POINT('',#145) ;
#153=VERTEX_POINT('',#152) ;
#160=VERTEX_POINT('',#159) ;
#184=VERTEX_POINT('',#183) ;
#191=VERTEX_POINT('',#190) ;
#215=VERTEX_POINT('',#214) ;
#222=VERTEX_POINT('',#221) ;
#296=VERTEX_POINT('',#295) ;
#298=VERTEX_POINT('',#297) ;
#305=VERTEX_POINT('',#304) ;
#312=VERTEX_POINT('',#311) ;
#348=VERTEX_POINT('',#347) ;
#350=VERTEX_POINT('',#349) ;
#357=VERTEX_POINT('',#356) ;
#364=VERTEX_POINT('',#363) ;
#12=(LENGTH_UNIT()NAMED_UNIT(*)SI_UNIT(.MILLI.,.METRE.)) ;
#13=(NAMED_UNIT(*)PLANE_ANGLE_UNIT()SI_UNIT($,.RADIAN.)) ;
#14=(NAMED_UNIT(*)SI_UNIT($,.STERADIAN.)SOLID_ANGLE_UNIT()) ;
#16=(GEOMETRIC_REPRESENTATION_CONTEXT(3)GLOBAL_UNCERTAINTY_ASSIGNED_CONTEXT((#15))GLOBAL_UNIT_ASSIGNED_CONTEXT((#12,#13,#14))REPRESENTATION_CONTEXT(' ',' ')) ;
ENDSEC;
END-ISO-10303-21;
