ISO-10303-21;
HEADER;
FILE_DESCRIPTION(('CATIA V5R19 STEP'),'2;1');

FILE_NAME ('D1456218_0_1792000000_1792000000.stp','2014-12-03T08:50:54+00:00',('none'),('Weidmueller'),'CATIA Version 5 Release 20 SP 5 (IN-10)','CATIA V5 STEP AP214','none');

FILE_SCHEMA(('AUTOMOTIVE_DESIGN { 1 0 10303 214 1 1 1 1 }'));

ENDSEC;
/* file written by CATIA V5R20 */
DATA;
#5=PRODUCT('WS 10/5 M','','<Q-CHECKER_SEAL> Q-Checker Version 2.6.2  \X2\000D\X0\\X2\000A\X0\CATIA-Version         : Catia V5 R18 SP6 Build Date 07-18-2008.22.00\X2\000D\X0\\X2\000A\X0\Model size (in KByte) : 0\X2\000D\X0\\X2\000A\X0\Checking date         : 2009-04-27 14:35:37\X2\000D\X0\\X2\000A\X0\Checking profile      : ADMIN / Release_CATDrawings [CATPart]\X2\000D\X0\\X2\000A\X0\Model assessment      : In Ordnung (IO)\X2\000D\X0\\X2\000A\X0\Total weight sum      : 0\X2\000D\X0\\X2\000A\X0\<CROSS_CHECK_SUM>\X2\000D\X0\\X2\000A\X0\  <CHKSUM_DATE> -1770565136 </CHKSUM_DATE>\X2\000D\X0\\X2\000A\X0\  <CHKSUM_ENTITIES> -717284324 </CHKSUM_ENTITIES>\X2\000D\X0\\X2\000A\X0\  <CHKSUM_PROFILE> 1875091983 </CHKSUM_PROFILE>\X2\000D\X0\\X2\000A\X0\  <CHKSUM_DIMENSION> -186917087 </CHKSUM_DIMENSION>\X2\000D\X0\\X2\000A\X0\  <CHKSUM_PROJINTERSEC> -896974048 </CHKSUM_PROJINTERSEC>\X2\000D\X0\\X2\000A\X0\  <CHKSUM_IDENTCRV> -896974048 </CHKSUM_IDENTCRV>\X2\000D\X0\\X2\000A\X0\  <CHKSUM_INFINITY> 138018827 </CHKSUM_INFINITY>\X2\000D\X0\\X2\000A\X0\</CROSS_CHECK_SUM>\X2\000D\X0\\X2\000A\X0\</Q-CHECKER_SEAL> \X2\000D\X0\\X2\000A\X0\ \X2\000D\X0\\X2\000A\X0\',(#2)) ;
#2=PRODUCT_CONTEXT(' ',#1,'mechanical') ;
#1=APPLICATION_CONTEXT('automotive design') ;
#10=PRODUCT_DEFINITION('',' ',#6,#3) ;
#3=PRODUCT_DEFINITION_CONTEXT('part definition',#1,' ') ;
#11=PRODUCT_DEFINITION_SHAPE(' ',' ',#10) ;
#574=MECHANICAL_DESIGN_GEOMETRIC_PRESENTATION_REPRESENTATION(' ',(#30),#17) ;
#20=SHAPE_REPRESENTATION(' ',(#19),#17) ;
#19=AXIS2_PLACEMENT_3D(' ',#18,$,$) ;
#36=AXIS2_PLACEMENT_3D('Plane Axis2P3D',#33,#34,#35) ;
#76=AXIS2_PLACEMENT_3D('Plane Axis2P3D',#73,#74,#75) ;
#141=AXIS2_PLACEMENT_3D('Plane Axis2P3D',#138,#139,#140) ;
#172=AXIS2_PLACEMENT_3D('Plane Axis2P3D',#169,#170,#171) ;
#203=AXIS2_PLACEMENT_3D('Plane Axis2P3D',#200,#201,#202) ;
#227=AXIS2_PLACEMENT_3D('Plane Axis2P3D',#224,#225,#226) ;
#251=AXIS2_PLACEMENT_3D('Plane Axis2P3D',#248,#249,#250) ;
#268=AXIS2_PLACEMENT_3D('Plane Axis2P3D',#265,#266,#267) ;
#360=AXIS2_PLACEMENT_3D('Plane Axis2P3D',#357,#358,#359) ;
#372=AXIS2_PLACEMENT_3D('Plane Axis2P3D',#369,#370,#371) ;
#403=AXIS2_PLACEMENT_3D('Plane Axis2P3D',#400,#401,#402) ;
#434=AXIS2_PLACEMENT_3D('Plane Axis2P3D',#431,#432,#433) ;
#465=AXIS2_PLACEMENT_3D('Plane Axis2P3D',#462,#463,#464) ;
#496=AXIS2_PLACEMENT_3D('Plane Axis2P3D',#493,#494,#495) ;
#535=AXIS2_PLACEMENT_3D('Plane Axis2P3D',#532,#533,#534) ;
#555=AXIS2_PLACEMENT_3D('Plane Axis2P3D',#552,#553,#554) ;
#18=CARTESIAN_POINT(' ',(0.,0.,0.)) ;
#33=CARTESIAN_POINT('Axis2P3D Location',(2.425,1.9,2.33523326)) ;
#38=CARTESIAN_POINT('Line Origine',(2.425,1.9,2.33523326)) ;
#42=CARTESIAN_POINT('Vertex',(0.5,1.9,2.33523326)) ;
#44=CARTESIAN_POINT('Vertex',(4.35,1.9,2.33523326)) ;
#47=CARTESIAN_POINT('Line Origine',(0.5,1.9,2.06023326)) ;
#51=CARTESIAN_POINT('Vertex',(0.5,1.9,1.78523326)) ;
#54=CARTESIAN_POINT('Line Origine',(2.425,1.9,1.78523326)) ;
#58=CARTESIAN_POINT('Vertex',(4.35,1.9,1.78523326)) ;
#61=CARTESIAN_POINT('Line Origine',(4.35,1.9,2.06023326)) ;
#73=CARTESIAN_POINT('Axis2P3D Location',(2.425,9.8,2.33523326)) ;
#78=CARTESIAN_POINT('Line Origine',(0.,4.9,2.33523326)) ;
#82=CARTESIAN_POINT('Vertex',(0.,0.,2.33523326)) ;
#84=CARTESIAN_POINT('Vertex',(0.,9.8,2.33523326)) ;
#87=CARTESIAN_POINT('Line Origine',(2.425,9.8,2.33523326)) ;
#91=CARTESIAN_POINT('Vertex',(4.85,9.8,2.33523326)) ;
#94=CARTESIAN_POINT('Line Origine',(4.85,4.9,2.33523326)) ;
#98=CARTESIAN_POINT('Vertex',(4.85,0.,2.33523326)) ;
#101=CARTESIAN_POINT('Line Origine',(2.425,0.,2.33523326)) ;
#112=CARTESIAN_POINT('Line Origine',(0.5,4.9,2.33523326)) ;
#116=CARTESIAN_POINT('Vertex',(0.5,7.9,2.33523326)) ;
#119=CARTESIAN_POINT('Line Origine',(4.35,4.9,2.33523326)) ;
#123=CARTESIAN_POINT('Vertex',(4.35,7.9,2.33523326)) ;
#126=CARTESIAN_POINT('Line Origine',(2.425,7.9,2.33523326)) ;
#138=CARTESIAN_POINT('Axis2P3D Location',(2.425,7.9,1.78523326)) ;
#143=CARTESIAN_POINT('Line Origine',(2.425,2.685,1.78523326)) ;
#147=CARTESIAN_POINT('Vertex',(4.35,2.685,1.78523326)) ;
#149=CARTESIAN_POINT('Vertex',(0.5,2.685,1.78523326)) ;
#152=CARTESIAN_POINT('Line Origine',(4.35,2.2925,1.78523326)) ;
#157=CARTESIAN_POINT('Line Origine',(0.5,2.2925,1.78523326)) ;
#169=CARTESIAN_POINT('Axis2P3D Location',(0.,0.,3.13523326)) ;
#174=CARTESIAN_POINT('Line Origine',(0.,0.,2.73523326)) ;
#178=CARTESIAN_POINT('Vertex',(0.,0.,3.13523326)) ;
#181=CARTESIAN_POINT('Line Origine',(0.,4.9,3.13523326)) ;
#185=CARTESIAN_POINT('Vertex',(0.,9.8,3.13523326)) ;
#188=CARTESIAN_POINT('Line Origine',(0.,9.8,2.73523326)) ;
#200=CARTESIAN_POINT('Axis2P3D Location',(2.425,9.8,3.13523326)) ;
#205=CARTESIAN_POINT('Line Origine',(2.425,9.8,3.13523326)) ;
#209=CARTESIAN_POINT('Vertex',(4.85,9.8,3.13523326)) ;
#212=CARTESIAN_POINT('Line Origine',(4.85,9.8,2.73523326)) ;
#224=CARTESIAN_POINT('Axis2P3D Location',(4.85,0.,3.13523326)) ;
#229=CARTESIAN_POINT('Line Origine',(4.85,4.9,3.13523326)) ;
#233=CARTESIAN_POINT('Vertex',(4.85,0.,3.13523326)) ;
#236=CARTESIAN_POINT('Line Origine',(4.85,0.,2.73523326)) ;
#248=CARTESIAN_POINT('Axis2P3D Location',(2.425,0.,2.33523326)) ;
#253=CARTESIAN_POINT('Line Origine',(2.425,0.,3.13523326)) ;
#265=CARTESIAN_POINT('Axis2P3D Location',(2.425,7.9,1.78523326)) ;
#270=CARTESIAN_POINT('Line Origine',(2.425,7.9,1.78523326)) ;
#274=CARTESIAN_POINT('Vertex',(0.5,7.9,1.78523326)) ;
#276=CARTESIAN_POINT('Vertex',(4.35,7.9,1.78523326)) ;
#279=CARTESIAN_POINT('Line Origine',(0.5,7.9,2.06023326)) ;
#284=CARTESIAN_POINT('Line Origine',(4.35,7.9,2.06023326)) ;
#296=CARTESIAN_POINT('Line Origine',(2.425,3.73600132536,1.78523326)) ;
#300=CARTESIAN_POINT('Vertex',(4.35,3.73600132536,1.78523326)) ;
#302=CARTESIAN_POINT('Vertex',(0.5,3.73600132536,1.78523326)) ;
#305=CARTESIAN_POINT('Line Origine',(0.5,4.9,1.78523326)) ;
#309=CARTESIAN_POINT('Vertex',(0.5,6.06399867464,1.78523326)) ;
#312=CARTESIAN_POINT('Line Origine',(2.425,6.06399867464,1.78523326)) ;
#316=CARTESIAN_POINT('Vertex',(4.35,6.06399867464,1.78523326)) ;
#319=CARTESIAN_POINT('Line Origine',(4.35,4.9,1.78523326)) ;
#331=CARTESIAN_POINT('Line Origine',(2.425,7.115,1.78523326)) ;
#335=CARTESIAN_POINT('Vertex',(4.35,7.115,1.78523326)) ;
#337=CARTESIAN_POINT('Vertex',(0.5,7.115,1.78523326)) ;
#340=CARTESIAN_POINT('Line Origine',(0.5,7.5075,1.78523326)) ;
#345=CARTESIAN_POINT('Line Origine',(4.35,7.5075,1.78523326)) ;
#357=CARTESIAN_POINT('Axis2P3D Location',(2.425,0.,3.13523326)) ;
#369=CARTESIAN_POINT('Axis2P3D Location',(2.425,7.115,1.78523326)) ;
#374=CARTESIAN_POINT('Line Origine',(0.5,7.115,0.892616631117)) ;
#378=CARTESIAN_POINT('Vertex',(0.5,7.115,2.23359419849E-009)) ;
#381=CARTESIAN_POINT('Line Origine',(4.35,7.115,0.892616631117)) ;
#385=CARTESIAN_POINT('Vertex',(4.35,7.115,2.23359419849E-009)) ;
#388=CARTESIAN_POINT('Line Origine',(2.425,7.115,2.23359419849E-009)) ;
#400=CARTESIAN_POINT('Axis2P3D Location',(2.425,6.06399867464,1.78523326)) ;
#405=CARTESIAN_POINT('Line Origine',(0.5,6.24900784409,0.892616631117)) ;
#409=CARTESIAN_POINT('Vertex',(0.5,6.43401701354,2.23359331031E-009)) ;
#412=CARTESIAN_POINT('Line Origine',(2.425,6.43401701354,2.23359242213E-009)) ;
#416=CARTESIAN_POINT('Vertex',(4.35,6.43401701354,2.23359331031E-009)) ;
#419=CARTESIAN_POINT('Line Origine',(4.35,6.24900784409,0.892616631117)) ;
#431=CARTESIAN_POINT('Axis2P3D Location',(2.425,3.73600132536,1.78523326)) ;
#436=CARTESIAN_POINT('Line Origine',(4.35,3.55099215591,0.892616631117)) ;
#440=CARTESIAN_POINT('Vertex',(4.35,3.36598298646,2.23359331031E-009)) ;
#443=CARTESIAN_POINT('Line Origine',(2.425,3.36598298646,2.23359264417E-009)) ;
#447=CARTESIAN_POINT('Vertex',(0.5,3.36598298646,2.23359331031E-009)) ;
#450=CARTESIAN_POINT('Line Origine',(0.5,3.55099215591,0.892616631117)) ;
#462=CARTESIAN_POINT('Axis2P3D Location',(2.425,2.685,1.78523326)) ;
#467=CARTESIAN_POINT('Line Origine',(2.425,2.685,2.23359331031E-009)) ;
#471=CARTESIAN_POINT('Vertex',(4.35,2.685,2.23359419849E-009)) ;
#473=CARTESIAN_POINT('Vertex',(0.5,2.685,2.23359419849E-009)) ;
#476=CARTESIAN_POINT('Line Origine',(4.35,2.685,0.892616631117)) ;
#481=CARTESIAN_POINT('Line Origine',(0.5,2.685,0.892616631117)) ;
#493=CARTESIAN_POINT('Axis2P3D Location',(2.425,2.685,2.23359419849E-009)) ;
#498=CARTESIAN_POINT('Line Origine',(0.5,6.77450850677,2.23359419849E-009)) ;
#503=CARTESIAN_POINT('Line Origine',(4.35,6.77450850677,2.23359419849E-009)) ;
#515=CARTESIAN_POINT('Line Origine',(4.35,3.02549149323,2.23359419849E-009)) ;
#520=CARTESIAN_POINT('Line Origine',(0.5,3.02549149323,2.23359419849E-009)) ;
#532=CARTESIAN_POINT('Axis2P3D Location',(0.5,0.,3.13523326)) ;
#552=CARTESIAN_POINT('Axis2P3D Location',(4.35,0.,3.13523326)) ;
#34=DIRECTION('Axis2P3D Direction',(0.,-1.,0.)) ;
#35=DIRECTION('Axis2P3D XDirection',(0.,0.,-1.)) ;
#39=DIRECTION('Vector Direction',(1.,0.,0.)) ;
#48=DIRECTION('Vector Direction',(0.,0.,-1.)) ;
#55=DIRECTION('Vector Direction',(1.,0.,0.)) ;
#62=DIRECTION('Vector Direction',(0.,0.,-1.)) ;
#74=DIRECTION('Axis2P3D Direction',(-0.,-0.,-1.)) ;
#75=DIRECTION('Axis2P3D XDirection',(0.,-1.,0.)) ;
#79=DIRECTION('Vector Direction',(0.,-1.,0.)) ;
#88=DIRECTION('Vector Direction',(-1.,0.,0.)) ;
#95=DIRECTION('Vector Direction',(0.,-1.,0.)) ;
#102=DIRECTION('Vector Direction',(-1.,0.,0.)) ;
#113=DIRECTION('Vector Direction',(0.,1.,0.)) ;
#120=DIRECTION('Vector Direction',(0.,1.,0.)) ;
#127=DIRECTION('Vector Direction',(1.,0.,0.)) ;
#139=DIRECTION('Axis2P3D Direction',(-0.,0.,1.)) ;
#140=DIRECTION('Axis2P3D XDirection',(0.,-1.,0.)) ;
#144=DIRECTION('Vector Direction',(-1.,0.,0.)) ;
#153=DIRECTION('Vector Direction',(0.,-1.,0.)) ;
#158=DIRECTION('Vector Direction',(0.,-1.,0.)) ;
#170=DIRECTION('Axis2P3D Direction',(1.,0.,0.)) ;
#171=DIRECTION('Axis2P3D XDirection',(0.,1.,0.)) ;
#175=DIRECTION('Vector Direction',(0.,0.,1.)) ;
#182=DIRECTION('Vector Direction',(0.,1.,0.)) ;
#189=DIRECTION('Vector Direction',(0.,0.,-1.)) ;
#201=DIRECTION('Axis2P3D Direction',(0.,1.,0.)) ;
#202=DIRECTION('Axis2P3D XDirection',(0.,0.,-1.)) ;
#206=DIRECTION('Vector Direction',(-1.,0.,0.)) ;
#213=DIRECTION('Vector Direction',(0.,0.,-1.)) ;
#225=DIRECTION('Axis2P3D Direction',(1.,0.,0.)) ;
#226=DIRECTION('Axis2P3D XDirection',(0.,1.,0.)) ;
#230=DIRECTION('Vector Direction',(0.,1.,0.)) ;
#237=DIRECTION('Vector Direction',(0.,0.,1.)) ;
#249=DIRECTION('Axis2P3D Direction',(0.,-1.,0.)) ;
#250=DIRECTION('Axis2P3D XDirection',(0.,0.,1.)) ;
#254=DIRECTION('Vector Direction',(-1.,0.,0.)) ;
#266=DIRECTION('Axis2P3D Direction',(0.,1.,0.)) ;
#267=DIRECTION('Axis2P3D XDirection',(0.,0.,1.)) ;
#271=DIRECTION('Vector Direction',(1.,0.,0.)) ;
#280=DIRECTION('Vector Direction',(0.,0.,1.)) ;
#285=DIRECTION('Vector Direction',(0.,0.,1.)) ;
#297=DIRECTION('Vector Direction',(-1.,0.,0.)) ;
#306=DIRECTION('Vector Direction',(0.,-1.,0.)) ;
#313=DIRECTION('Vector Direction',(-1.,4.61391386857E-016,0.)) ;
#320=DIRECTION('Vector Direction',(0.,-1.,0.)) ;
#332=DIRECTION('Vector Direction',(-1.,0.,0.)) ;
#341=DIRECTION('Vector Direction',(0.,-1.,0.)) ;
#346=DIRECTION('Vector Direction',(0.,-1.,0.)) ;
#358=DIRECTION('Axis2P3D Direction',(0.,-0.,1.)) ;
#359=DIRECTION('Axis2P3D XDirection',(0.,1.,0.)) ;
#370=DIRECTION('Axis2P3D Direction',(1.83697019872E-016,1.,3.03858167864E-063)) ;
#371=DIRECTION('Axis2P3D XDirection',(-2.58195522249E-032,4.74297479815E-048,-1.)) ;
#375=DIRECTION('Vector Direction',(0.,0.,-1.)) ;
#382=DIRECTION('Vector Direction',(0.,0.,-1.)) ;
#389=DIRECTION('Vector Direction',(-1.,0.,0.)) ;
#401=DIRECTION('Axis2P3D Direction',(1.79874021055E-016,0.979188563756,0.202952596953)) ;
#402=DIRECTION('Axis2P3D XDirection',(3.72817872356E-017,0.202952596953,-0.979188563756)) ;
#406=DIRECTION('Vector Direction',(0.,0.202952596953,-0.979188563756)) ;
#413=DIRECTION('Vector Direction',(-1.,0.,0.)) ;
#420=DIRECTION('Vector Direction',(0.,0.202952596953,-0.979188563756)) ;
#432=DIRECTION('Axis2P3D Direction',(1.79874021055E-016,0.979188563756,-0.202952596953)) ;
#433=DIRECTION('Axis2P3D XDirection',(-3.72817872356E-017,-0.202952596953,-0.979188563756)) ;
#437=DIRECTION('Vector Direction',(0.,-0.202952596953,-0.979188563756)) ;
#444=DIRECTION('Vector Direction',(-1.,2.30695693429E-016,0.)) ;
#451=DIRECTION('Vector Direction',(0.,-0.202952596953,-0.979188563756)) ;
#463=DIRECTION('Axis2P3D Direction',(1.83697019872E-016,1.,3.03858167864E-063)) ;
#464=DIRECTION('Axis2P3D XDirection',(-2.58195522249E-032,4.74297479815E-048,-1.)) ;
#468=DIRECTION('Vector Direction',(-1.,2.30695693429E-016,0.)) ;
#477=DIRECTION('Vector Direction',(0.,0.,-1.)) ;
#482=DIRECTION('Vector Direction',(0.,0.,-1.)) ;
#494=DIRECTION('Axis2P3D Direction',(0.,0.,1.)) ;
#495=DIRECTION('Axis2P3D XDirection',(1.83697019872E-016,1.,-0.)) ;
#499=DIRECTION('Vector Direction',(0.,1.,0.)) ;
#504=DIRECTION('Vector Direction',(0.,1.,0.)) ;
#516=DIRECTION('Vector Direction',(0.,1.,0.)) ;
#521=DIRECTION('Vector Direction',(0.,1.,0.)) ;
#533=DIRECTION('Axis2P3D Direction',(1.,0.,0.)) ;
#534=DIRECTION('Axis2P3D XDirection',(0.,1.,0.)) ;
#553=DIRECTION('Axis2P3D Direction',(1.,0.,0.)) ;
#554=DIRECTION('Axis2P3D XDirection',(0.,1.,0.)) ;
#31=PRESENTATION_LAYER_ASSIGNMENT('1',' ',(#22)) ;
#8=PRODUCT_RELATED_PRODUCT_CATEGORY('part',$,(#5)) ;
#7=PRODUCT_CATEGORY('part','specification') ;
#30=STYLED_ITEM(' ',(#29),#22) ;
#29=PRESENTATION_STYLE_ASSIGNMENT((#28)) ;
#28=SURFACE_STYLE_USAGE(.BOTH.,#27) ;
#27=SURFACE_SIDE_STYLE(' ',(#26)) ;
#26=SURFACE_STYLE_FILL_AREA(#25) ;
#25=FILL_AREA_STYLE(' ',(#24)) ;
#24=FILL_AREA_STYLE_COLOUR(' ',#23) ;
#40=VECTOR('Line Direction',#39,1.) ;
#49=VECTOR('Line Direction',#48,1.) ;
#56=VECTOR('Line Direction',#55,1.) ;
#63=VECTOR('Line Direction',#62,1.) ;
#80=VECTOR('Line Direction',#79,1.) ;
#89=VECTOR('Line Direction',#88,1.) ;
#96=VECTOR('Line Direction',#95,1.) ;
#103=VECTOR('Line Direction',#102,1.) ;
#114=VECTOR('Line Direction',#113,1.) ;
#121=VECTOR('Line Direction',#120,1.) ;
#128=VECTOR('Line Direction',#127,1.) ;
#145=VECTOR('Line Direction',#144,1.) ;
#154=VECTOR('Line Direction',#153,1.) ;
#159=VECTOR('Line Direction',#158,1.) ;
#176=VECTOR('Line Direction',#175,1.) ;
#183=VECTOR('Line Direction',#182,1.) ;
#190=VECTOR('Line Direction',#189,1.) ;
#207=VECTOR('Line Direction',#206,1.) ;
#214=VECTOR('Line Direction',#213,1.) ;
#231=VECTOR('Line Direction',#230,1.) ;
#238=VECTOR('Line Direction',#237,1.) ;
#255=VECTOR('Line Direction',#254,1.) ;
#272=VECTOR('Line Direction',#271,1.) ;
#281=VECTOR('Line Direction',#280,1.) ;
#286=VECTOR('Line Direction',#285,1.) ;
#298=VECTOR('Line Direction',#297,1.) ;
#307=VECTOR('Line Direction',#306,1.) ;
#314=VECTOR('Line Direction',#313,1.) ;
#321=VECTOR('Line Direction',#320,1.) ;
#333=VECTOR('Line Direction',#332,1.) ;
#342=VECTOR('Line Direction',#341,1.) ;
#347=VECTOR('Line Direction',#346,1.) ;
#376=VECTOR('Line Direction',#375,1.) ;
#383=VECTOR('Line Direction',#382,1.) ;
#390=VECTOR('Line Direction',#389,1.) ;
#407=VECTOR('Line Direction',#406,1.) ;
#414=VECTOR('Line Direction',#413,1.) ;
#421=VECTOR('Line Direction',#420,1.) ;
#438=VECTOR('Line Direction',#437,1.) ;
#445=VECTOR('Line Direction',#444,1.) ;
#452=VECTOR('Line Direction',#451,1.) ;
#469=VECTOR('Line Direction',#468,1.) ;
#478=VECTOR('Line Direction',#477,1.) ;
#483=VECTOR('Line Direction',#482,1.) ;
#500=VECTOR('Line Direction',#499,1.) ;
#505=VECTOR('Line Direction',#504,1.) ;
#517=VECTOR('Line Direction',#516,1.) ;
#522=VECTOR('Line Direction',#521,1.) ;
#16=UNCERTAINTY_MEASURE_WITH_UNIT(LENGTH_MEASURE(0.005),#12,'distance_accuracy_value','CONFUSED CURVE UNCERTAINTY') ;
#573=SHAPE_REPRESENTATION_RELATIONSHIP(' ',' ',#20,#572) ;
#67=ORIENTED_EDGE('',*,*,#46,.F.) ;
#68=ORIENTED_EDGE('',*,*,#53,.T.) ;
#69=ORIENTED_EDGE('',*,*,#60,.T.) ;
#70=ORIENTED_EDGE('',*,*,#65,.F.) ;
#107=ORIENTED_EDGE('',*,*,#86,.T.) ;
#108=ORIENTED_EDGE('',*,*,#93,.F.) ;
#109=ORIENTED_EDGE('',*,*,#100,.F.) ;
#110=ORIENTED_EDGE('',*,*,#105,.T.) ;
#132=ORIENTED_EDGE('',*,*,#118,.T.) ;
#133=ORIENTED_EDGE('',*,*,#46,.T.) ;
#134=ORIENTED_EDGE('',*,*,#125,.F.) ;
#135=ORIENTED_EDGE('',*,*,#130,.F.) ;
#163=ORIENTED_EDGE('',*,*,#151,.F.) ;
#164=ORIENTED_EDGE('',*,*,#156,.F.) ;
#165=ORIENTED_EDGE('',*,*,#60,.F.) ;
#166=ORIENTED_EDGE('',*,*,#161,.T.) ;
#194=ORIENTED_EDGE('',*,*,#180,.F.) ;
#195=ORIENTED_EDGE('',*,*,#187,.F.) ;
#196=ORIENTED_EDGE('',*,*,#192,.F.) ;
#197=ORIENTED_EDGE('',*,*,#86,.F.) ;
#218=ORIENTED_EDGE('',*,*,#192,.T.) ;
#219=ORIENTED_EDGE('',*,*,#211,.F.) ;
#220=ORIENTED_EDGE('',*,*,#216,.F.) ;
#221=ORIENTED_EDGE('',*,*,#93,.T.) ;
#242=ORIENTED_EDGE('',*,*,#100,.T.) ;
#243=ORIENTED_EDGE('',*,*,#216,.T.) ;
#244=ORIENTED_EDGE('',*,*,#235,.T.) ;
#245=ORIENTED_EDGE('',*,*,#240,.T.) ;
#259=ORIENTED_EDGE('',*,*,#180,.T.) ;
#260=ORIENTED_EDGE('',*,*,#105,.F.) ;
#261=ORIENTED_EDGE('',*,*,#240,.F.) ;
#262=ORIENTED_EDGE('',*,*,#257,.T.) ;
#290=ORIENTED_EDGE('',*,*,#278,.F.) ;
#291=ORIENTED_EDGE('',*,*,#283,.T.) ;
#292=ORIENTED_EDGE('',*,*,#130,.T.) ;
#293=ORIENTED_EDGE('',*,*,#288,.F.) ;
#325=ORIENTED_EDGE('',*,*,#304,.T.) ;
#326=ORIENTED_EDGE('',*,*,#311,.T.) ;
#327=ORIENTED_EDGE('',*,*,#318,.F.) ;
#328=ORIENTED_EDGE('',*,*,#323,.F.) ;
#351=ORIENTED_EDGE('',*,*,#339,.T.) ;
#352=ORIENTED_EDGE('',*,*,#344,.T.) ;
#353=ORIENTED_EDGE('',*,*,#278,.T.) ;
#354=ORIENTED_EDGE('',*,*,#349,.F.) ;
#363=ORIENTED_EDGE('',*,*,#187,.T.) ;
#364=ORIENTED_EDGE('',*,*,#257,.F.) ;
#365=ORIENTED_EDGE('',*,*,#235,.F.) ;
#366=ORIENTED_EDGE('',*,*,#211,.T.) ;
#394=ORIENTED_EDGE('',*,*,#380,.T.) ;
#395=ORIENTED_EDGE('',*,*,#339,.F.) ;
#396=ORIENTED_EDGE('',*,*,#387,.F.) ;
#397=ORIENTED_EDGE('',*,*,#392,.T.) ;
#425=ORIENTED_EDGE('',*,*,#411,.T.) ;
#426=ORIENTED_EDGE('',*,*,#418,.F.) ;
#427=ORIENTED_EDGE('',*,*,#423,.F.) ;
#428=ORIENTED_EDGE('',*,*,#318,.T.) ;
#456=ORIENTED_EDGE('',*,*,#304,.F.) ;
#457=ORIENTED_EDGE('',*,*,#442,.T.) ;
#458=ORIENTED_EDGE('',*,*,#449,.T.) ;
#459=ORIENTED_EDGE('',*,*,#454,.F.) ;
#487=ORIENTED_EDGE('',*,*,#475,.F.) ;
#488=ORIENTED_EDGE('',*,*,#480,.T.) ;
#489=ORIENTED_EDGE('',*,*,#151,.T.) ;
#490=ORIENTED_EDGE('',*,*,#485,.F.) ;
#509=ORIENTED_EDGE('',*,*,#502,.T.) ;
#510=ORIENTED_EDGE('',*,*,#392,.F.) ;
#511=ORIENTED_EDGE('',*,*,#507,.F.) ;
#512=ORIENTED_EDGE('',*,*,#418,.T.) ;
#526=ORIENTED_EDGE('',*,*,#449,.F.) ;
#527=ORIENTED_EDGE('',*,*,#519,.T.) ;
#528=ORIENTED_EDGE('',*,*,#475,.T.) ;
#529=ORIENTED_EDGE('',*,*,#524,.F.) ;
#538=ORIENTED_EDGE('',*,*,#118,.F.) ;
#539=ORIENTED_EDGE('',*,*,#283,.F.) ;
#540=ORIENTED_EDGE('',*,*,#344,.F.) ;
#541=ORIENTED_EDGE('',*,*,#380,.F.) ;
#542=ORIENTED_EDGE('',*,*,#502,.F.) ;
#543=ORIENTED_EDGE('',*,*,#411,.F.) ;
#544=ORIENTED_EDGE('',*,*,#311,.F.) ;
#545=ORIENTED_EDGE('',*,*,#454,.T.) ;
#546=ORIENTED_EDGE('',*,*,#524,.T.) ;
#547=ORIENTED_EDGE('',*,*,#485,.T.) ;
#548=ORIENTED_EDGE('',*,*,#161,.F.) ;
#549=ORIENTED_EDGE('',*,*,#53,.F.) ;
#558=ORIENTED_EDGE('',*,*,#65,.T.) ;
#559=ORIENTED_EDGE('',*,*,#156,.T.) ;
#560=ORIENTED_EDGE('',*,*,#480,.F.) ;
#561=ORIENTED_EDGE('',*,*,#519,.F.) ;
#562=ORIENTED_EDGE('',*,*,#442,.F.) ;
#563=ORIENTED_EDGE('',*,*,#323,.T.) ;
#564=ORIENTED_EDGE('',*,*,#423,.T.) ;
#565=ORIENTED_EDGE('',*,*,#507,.T.) ;
#566=ORIENTED_EDGE('',*,*,#387,.T.) ;
#567=ORIENTED_EDGE('',*,*,#349,.T.) ;
#568=ORIENTED_EDGE('',*,*,#288,.T.) ;
#569=ORIENTED_EDGE('',*,*,#125,.T.) ;
#136=FACE_BOUND('',#131,.T.) ;
#32=CLOSED_SHELL('Closed Shell',(#72,#137,#168,#199,#223,#247,#264,#295,#330,#356,#368,#399,#430,#461,#492,#514,#531,#551,#571)) ;
#572=ADVANCED_BREP_SHAPE_REPRESENTATION('NONE',(#22),#17) ;
#72=ADVANCED_FACE('S3D - gedreht',(#71),#37,.T.) ;
#137=ADVANCED_FACE('S3D - gedreht',(#111,#136),#77,.T.) ;
#168=ADVANCED_FACE('S3D - gedreht',(#167),#142,.F.) ;
#199=ADVANCED_FACE('S3D - gedreht',(#198),#173,.F.) ;
#223=ADVANCED_FACE('S3D - gedreht',(#222),#204,.T.) ;
#247=ADVANCED_FACE('S3D - gedreht',(#246),#228,.T.) ;
#264=ADVANCED_FACE('S3D - gedreht',(#263),#252,.T.) ;
#295=ADVANCED_FACE('S3D - gedreht',(#294),#269,.T.) ;
#330=ADVANCED_FACE('S3D - gedreht',(#329),#142,.F.) ;
#356=ADVANCED_FACE('S3D - gedreht',(#355),#142,.F.) ;
#368=ADVANCED_FACE('S3D - gedreht',(#367),#361,.T.) ;
#399=ADVANCED_FACE('S3D - gedreht',(#398),#373,.T.) ;
#430=ADVANCED_FACE('S3D - gedreht',(#429),#404,.F.) ;
#461=ADVANCED_FACE('S3D - gedreht',(#460),#435,.T.) ;
#492=ADVANCED_FACE('S3D - gedreht',(#491),#466,.F.) ;
#514=ADVANCED_FACE('S3D - gedreht',(#513),#497,.F.) ;
#531=ADVANCED_FACE('S3D - gedreht',(#530),#497,.F.) ;
#551=ADVANCED_FACE('S3D - gedreht',(#550),#536,.F.) ;
#571=ADVANCED_FACE('S3D - gedreht',(#570),#556,.T.) ;
#4=APPLICATION_PROTOCOL_DEFINITION('international standard','automotive_design',2001,#1) ;
#22=MANIFOLD_SOLID_BREP('S3D - gedreht',#32) ;
#23=DRAUGHTING_PRE_DEFINED_COLOUR('white') ;
#46=EDGE_CURVE('',#43,#45,#41,.T.) ;
#53=EDGE_CURVE('',#43,#52,#50,.T.) ;
#60=EDGE_CURVE('',#52,#59,#57,.T.) ;
#65=EDGE_CURVE('',#45,#59,#64,.T.) ;
#86=EDGE_CURVE('',#83,#85,#81,.F.) ;
#93=EDGE_CURVE('',#92,#85,#90,.T.) ;
#100=EDGE_CURVE('',#99,#92,#97,.F.) ;
#105=EDGE_CURVE('',#99,#83,#104,.T.) ;
#118=EDGE_CURVE('',#117,#43,#115,.F.) ;
#125=EDGE_CURVE('',#124,#45,#122,.F.) ;
#130=EDGE_CURVE('',#117,#124,#129,.T.) ;
#151=EDGE_CURVE('',#148,#150,#146,.T.) ;
#156=EDGE_CURVE('',#59,#148,#155,.F.) ;
#161=EDGE_CURVE('',#52,#150,#160,.F.) ;
#180=EDGE_CURVE('',#179,#83,#177,.F.) ;
#187=EDGE_CURVE('',#186,#179,#184,.F.) ;
#192=EDGE_CURVE('',#85,#186,#191,.F.) ;
#211=EDGE_CURVE('',#210,#186,#208,.T.) ;
#216=EDGE_CURVE('',#92,#210,#215,.F.) ;
#235=EDGE_CURVE('',#210,#234,#232,.F.) ;
#240=EDGE_CURVE('',#234,#99,#239,.F.) ;
#257=EDGE_CURVE('',#234,#179,#256,.T.) ;
#278=EDGE_CURVE('',#275,#277,#273,.T.) ;
#283=EDGE_CURVE('',#275,#117,#282,.T.) ;
#288=EDGE_CURVE('',#277,#124,#287,.T.) ;
#304=EDGE_CURVE('',#301,#303,#299,.T.) ;
#311=EDGE_CURVE('',#303,#310,#308,.F.) ;
#318=EDGE_CURVE('',#317,#310,#315,.T.) ;
#323=EDGE_CURVE('',#301,#317,#322,.F.) ;
#339=EDGE_CURVE('',#336,#338,#334,.T.) ;
#344=EDGE_CURVE('',#338,#275,#343,.F.) ;
#349=EDGE_CURVE('',#336,#277,#348,.F.) ;
#380=EDGE_CURVE('',#379,#338,#377,.F.) ;
#387=EDGE_CURVE('',#386,#336,#384,.F.) ;
#392=EDGE_CURVE('',#386,#379,#391,.T.) ;
#411=EDGE_CURVE('',#310,#410,#408,.T.) ;
#418=EDGE_CURVE('',#417,#410,#415,.T.) ;
#423=EDGE_CURVE('',#317,#417,#422,.T.) ;
#442=EDGE_CURVE('',#301,#441,#439,.T.) ;
#449=EDGE_CURVE('',#441,#448,#446,.T.) ;
#454=EDGE_CURVE('',#303,#448,#453,.T.) ;
#475=EDGE_CURVE('',#472,#474,#470,.T.) ;
#480=EDGE_CURVE('',#472,#148,#479,.F.) ;
#485=EDGE_CURVE('',#474,#150,#484,.F.) ;
#502=EDGE_CURVE('',#410,#379,#501,.T.) ;
#507=EDGE_CURVE('',#417,#386,#506,.T.) ;
#519=EDGE_CURVE('',#441,#472,#518,.F.) ;
#524=EDGE_CURVE('',#448,#474,#523,.F.) ;
#66=EDGE_LOOP('',(#67,#68,#69,#70)) ;
#106=EDGE_LOOP('',(#107,#108,#109,#110)) ;
#131=EDGE_LOOP('',(#132,#133,#134,#135)) ;
#162=EDGE_LOOP('',(#163,#164,#165,#166)) ;
#193=EDGE_LOOP('',(#194,#195,#196,#197)) ;
#217=EDGE_LOOP('',(#218,#219,#220,#221)) ;
#241=EDGE_LOOP('',(#242,#243,#244,#245)) ;
#258=EDGE_LOOP('',(#259,#260,#261,#262)) ;
#289=EDGE_LOOP('',(#290,#291,#292,#293)) ;
#324=EDGE_LOOP('',(#325,#326,#327,#328)) ;
#350=EDGE_LOOP('',(#351,#352,#353,#354)) ;
#362=EDGE_LOOP('',(#363,#364,#365,#366)) ;
#393=EDGE_LOOP('',(#394,#395,#396,#397)) ;
#424=EDGE_LOOP('',(#425,#426,#427,#428)) ;
#455=EDGE_LOOP('',(#456,#457,#458,#459)) ;
#486=EDGE_LOOP('',(#487,#488,#489,#490)) ;
#508=EDGE_LOOP('',(#509,#510,#511,#512)) ;
#525=EDGE_LOOP('',(#526,#527,#528,#529)) ;
#537=EDGE_LOOP('',(#538,#539,#540,#541,#542,#543,#544,#545,#546,#547,#548,#549)) ;
#557=EDGE_LOOP('',(#558,#559,#560,#561,#562,#563,#564,#565,#566,#567,#568,#569)) ;
#71=FACE_OUTER_BOUND('',#66,.T.) ;
#111=FACE_OUTER_BOUND('',#106,.T.) ;
#167=FACE_OUTER_BOUND('',#162,.T.) ;
#198=FACE_OUTER_BOUND('',#193,.T.) ;
#222=FACE_OUTER_BOUND('',#217,.T.) ;
#246=FACE_OUTER_BOUND('',#241,.T.) ;
#263=FACE_OUTER_BOUND('',#258,.T.) ;
#294=FACE_OUTER_BOUND('',#289,.T.) ;
#329=FACE_OUTER_BOUND('',#324,.T.) ;
#355=FACE_OUTER_BOUND('',#350,.T.) ;
#367=FACE_OUTER_BOUND('',#362,.T.) ;
#398=FACE_OUTER_BOUND('',#393,.T.) ;
#429=FACE_OUTER_BOUND('',#424,.T.) ;
#460=FACE_OUTER_BOUND('',#455,.T.) ;
#491=FACE_OUTER_BOUND('',#486,.T.) ;
#513=FACE_OUTER_BOUND('',#508,.T.) ;
#530=FACE_OUTER_BOUND('',#525,.T.) ;
#550=FACE_OUTER_BOUND('',#537,.T.) ;
#570=FACE_OUTER_BOUND('',#557,.T.) ;
#41=LINE('Line',#38,#40) ;
#50=LINE('Line',#47,#49) ;
#57=LINE('Line',#54,#56) ;
#64=LINE('Line',#61,#63) ;
#81=LINE('Line',#78,#80) ;
#90=LINE('Line',#87,#89) ;
#97=LINE('Line',#94,#96) ;
#104=LINE('Line',#101,#103) ;
#115=LINE('Line',#112,#114) ;
#122=LINE('Line',#119,#121) ;
#129=LINE('Line',#126,#128) ;
#146=LINE('Line',#143,#145) ;
#155=LINE('Line',#152,#154) ;
#160=LINE('Line',#157,#159) ;
#177=LINE('Line',#174,#176) ;
#184=LINE('Line',#181,#183) ;
#191=LINE('Line',#188,#190) ;
#208=LINE('Line',#205,#207) ;
#215=LINE('Line',#212,#214) ;
#232=LINE('Line',#229,#231) ;
#239=LINE('Line',#236,#238) ;
#256=LINE('Line',#253,#255) ;
#273=LINE('Line',#270,#272) ;
#282=LINE('Line',#279,#281) ;
#287=LINE('Line',#284,#286) ;
#299=LINE('Line',#296,#298) ;
#308=LINE('Line',#305,#307) ;
#315=LINE('Line',#312,#314) ;
#322=LINE('Line',#319,#321) ;
#334=LINE('Line',#331,#333) ;
#343=LINE('Line',#340,#342) ;
#348=LINE('Line',#345,#347) ;
#377=LINE('Line',#374,#376) ;
#384=LINE('Line',#381,#383) ;
#391=LINE('Line',#388,#390) ;
#408=LINE('Line',#405,#407) ;
#415=LINE('Line',#412,#414) ;
#422=LINE('Line',#419,#421) ;
#439=LINE('Line',#436,#438) ;
#446=LINE('Line',#443,#445) ;
#453=LINE('Line',#450,#452) ;
#470=LINE('Line',#467,#469) ;
#479=LINE('Line',#476,#478) ;
#484=LINE('Line',#481,#483) ;
#501=LINE('Line',#498,#500) ;
#506=LINE('Line',#503,#505) ;
#518=LINE('Line',#515,#517) ;
#523=LINE('Line',#520,#522) ;
#37=PLANE('',#36) ;
#77=PLANE('',#76) ;
#142=PLANE('',#141) ;
#173=PLANE('',#172) ;
#204=PLANE('',#203) ;
#228=PLANE('',#227) ;
#252=PLANE('',#251) ;
#269=PLANE('',#268) ;
#361=PLANE('',#360) ;
#373=PLANE('',#372) ;
#404=PLANE('',#403) ;
#435=PLANE('',#434) ;
#466=PLANE('',#465) ;
#497=PLANE('',#496) ;
#536=PLANE('',#535) ;
#556=PLANE('',#555) ;
#14=PLANE_ANGLE_MEASURE_WITH_UNIT(PLANE_ANGLE_MEASURE(0.0174532925199),#13) ;
#9=PRODUCT_CATEGORY_RELATIONSHIP(' ',' ',#7,#8) ;
#6=PRODUCT_DEFINITION_FORMATION_WITH_SPECIFIED_SOURCE('',' ',#5,.NOT_KNOWN.) ;
#21=SHAPE_DEFINITION_REPRESENTATION(#11,#20) ;
#43=VERTEX_POINT('',#42) ;
#45=VERTEX_POINT('',#44) ;
#52=VERTEX_POINT('',#51) ;
#59=VERTEX_POINT('',#58) ;
#83=VERTEX_POINT('',#82) ;
#85=VERTEX_POINT('',#84) ;
#92=VERTEX_POINT('',#91) ;
#99=VERTEX_POINT('',#98) ;
#117=VERTEX_POINT('',#116) ;
#124=VERTEX_POINT('',#123) ;
#148=VERTEX_POINT('',#147) ;
#150=VERTEX_POINT('',#149) ;
#179=VERTEX_POINT('',#178) ;
#186=VERTEX_POINT('',#185) ;
#210=VERTEX_POINT('',#209) ;
#234=VERTEX_POINT('',#233) ;
#275=VERTEX_POINT('',#274) ;
#277=VERTEX_POINT('',#276) ;
#301=VERTEX_POINT('',#300) ;
#303=VERTEX_POINT('',#302) ;
#310=VERTEX_POINT('',#309) ;
#317=VERTEX_POINT('',#316) ;
#336=VERTEX_POINT('',#335) ;
#338=VERTEX_POINT('',#337) ;
#379=VERTEX_POINT('',#378) ;
#386=VERTEX_POINT('',#385) ;
#410=VERTEX_POINT('',#409) ;
#417=VERTEX_POINT('',#416) ;
#441=VERTEX_POINT('',#440) ;
#448=VERTEX_POINT('',#447) ;
#472=VERTEX_POINT('',#471) ;
#474=VERTEX_POINT('',#473) ;
#12=(LENGTH_UNIT()NAMED_UNIT(*)SI_UNIT(.MILLI.,.METRE.)) ;
#13=(NAMED_UNIT(*)PLANE_ANGLE_UNIT()SI_UNIT($,.RADIAN.)) ;
#15=(NAMED_UNIT(*)SI_UNIT($,.STERADIAN.)SOLID_ANGLE_UNIT()) ;
#17=(GEOMETRIC_REPRESENTATION_CONTEXT(3)GLOBAL_UNCERTAINTY_ASSIGNED_CONTEXT((#16))GLOBAL_UNIT_ASSIGNED_CONTEXT((#12,#13,#15))REPRESENTATION_CONTEXT(' ',' ')) ;
ENDSEC;
END-ISO-10303-21;
