ISO-10303-21;
HEADER;
FILE_DESCRIPTION(('CATIA V5R19 STEP'),'2;1');

FILE_NAME ('D1453901_0_1631350000_1631350000.stp','2015-01-14T12:34:01+00:00',('none'),('Weidmueller'),'CATIA Version 5 Release 20 SP 5 (IN-10)','CATIA V5 STEP AP214','none');

FILE_SCHEMA(('AUTOMOTIVE_DESIGN { 1 0 10303 214 1 1 1 1 }'));

ENDSEC;
/* file written by CATIA V5R20 */
DATA;
#5=PRODUCT('ESO 5 F. SCHT 5','','<Q-CHECKER_SEAL> Q-Checker Version 2.14.8  \X2\000A\X0\CATIA-Version         : Catia V5 R20 SP5 Build Date 01-06-2014.17.15\X2\000A\X0\Model size (in KByte) : 0\X2\000A\X0\Checking date         : 2015-01-14 12:11:48\X2\000A\X0\Checking profile      : ADMIN / Release_2D-3D [CATPart]\X2\000A\X0\Model assessment      : In Ordnung (IO)\X2\000A\X0\Total weight sum      : 0\X2\000A\X0\<CROSS_CHECK_SUM>\X2\000A\X0\  <CHKSUM_DATE> 2122310408 </CHKSUM_DATE>\X2\000A\X0\  <CHKSUM_ENTITIES> -2058001663 </CHKSUM_ENTITIES>\X2\000A\X0\  <CHKSUM_PROFILE> 1594213346 </CHKSUM_PROFILE>\X2\000A\X0\  <CHKSUM_DIMENSION> -186917087 </CHKSUM_DIMENSION>\X2\000A\X0\  <CHKSUM_PROJINTERSEC> -896974048 </CHKSUM_PROJINTERSEC>\X2\000A\X0\  <CHKSUM_IDENTCRV> -896974048 </CHKSUM_IDENTCRV>\X2\000A\X0\  <CHKSUM_INFINITY> 138018827 </CHKSUM_INFINITY>\X2\000A\X0\</CROSS_CHECK_SUM>\X2\000A\X0\</Q-CHECKER_SEAL> \X2\000A\X0\ \X2\000A\X0\ \X2\000D\X0\\X2\000A\X0\ \X2\000D\X0\\X2\000A\X0\',(#2)) ;
#2=PRODUCT_CONTEXT(' ',#1,'mechanical') ;
#1=APPLICATION_CONTEXT('automotive design') ;
#10=PRODUCT_DEFINITION('',' ',#6,#3) ;
#3=PRODUCT_DEFINITION_CONTEXT('part definition',#1,' ') ;
#11=PRODUCT_DEFINITION_SHAPE(' ',' ',#10) ;
#183=MECHANICAL_DESIGN_GEOMETRIC_PRESENTATION_REPRESENTATION(' ',(#30),#17) ;
#20=SHAPE_REPRESENTATION(' ',(#19),#17) ;
#19=AXIS2_PLACEMENT_3D(' ',#18,$,$) ;
#36=AXIS2_PLACEMENT_3D('Plane Axis2P3D',#33,#34,#35) ;
#76=AXIS2_PLACEMENT_3D('Plane Axis2P3D',#73,#74,#75) ;
#107=AXIS2_PLACEMENT_3D('Plane Axis2P3D',#104,#105,#106) ;
#131=AXIS2_PLACEMENT_3D('Plane Axis2P3D',#128,#129,#130) ;
#155=AXIS2_PLACEMENT_3D('Plane Axis2P3D',#152,#153,#154) ;
#172=AXIS2_PLACEMENT_3D('Plane Axis2P3D',#169,#170,#171) ;
#18=CARTESIAN_POINT(' ',(0.,0.,0.)) ;
#33=CARTESIAN_POINT('Axis2P3D Location',(16.25,39.75,4.97512762154E-016)) ;
#38=CARTESIAN_POINT('Line Origine',(16.25,39.75,0.0999999996275)) ;
#42=CARTESIAN_POINT('Vertex',(16.25,39.75,4.97512762154E-016)) ;
#44=CARTESIAN_POINT('Vertex',(16.25,39.75,0.199999999255)) ;
#47=CARTESIAN_POINT('Line Origine',(8.125,39.75,1.24935845864E-028)) ;
#51=CARTESIAN_POINT('Vertex',(0.,39.75,-4.97512762154E-016)) ;
#54=CARTESIAN_POINT('Line Origine',(-6.12323397293E-018,39.75,0.0999999996275)) ;
#58=CARTESIAN_POINT('Vertex',(-1.22464679459E-017,39.75,0.199999999255)) ;
#61=CARTESIAN_POINT('Line Origine',(8.125,39.75,0.199999999255)) ;
#73=CARTESIAN_POINT('Axis2P3D Location',(16.25,39.75,4.97512762154E-016)) ;
#78=CARTESIAN_POINT('Line Origine',(16.25,3.74939944269E-034,0.0999999996275)) ;
#82=CARTESIAN_POINT('Vertex',(16.25,-9.95025524308E-016,4.97512762154E-016)) ;
#84=CARTESIAN_POINT('Vertex',(16.25,-9.95025524308E-016,0.199999999255)) ;
#87=CARTESIAN_POINT('Line Origine',(16.25,19.875,4.97512762154E-016)) ;
#92=CARTESIAN_POINT('Line Origine',(16.25,19.875,0.199999999255)) ;
#104=CARTESIAN_POINT('Axis2P3D Location',(8.125,19.875,0.)) ;
#109=CARTESIAN_POINT('Line Origine',(8.125,0.,0.)) ;
#113=CARTESIAN_POINT('Vertex',(-1.7763568394E-015,3.5527136788E-015,-4.97512762154E-016)) ;
#116=CARTESIAN_POINT('Line Origine',(0.,19.875,-4.97512762154E-016)) ;
#128=CARTESIAN_POINT('Axis2P3D Location',(-1.7763568394E-015,3.5527136788E-015,-4.97512762154E-016)) ;
#133=CARTESIAN_POINT('Line Origine',(-1.78248007337E-015,3.5527136788E-015,0.0999999996275)) ;
#137=CARTESIAN_POINT('Vertex',(-1.78860330735E-015,3.5527136788E-015,0.199999999255)) ;
#140=CARTESIAN_POINT('Line Origine',(-5.71610550693E-016,19.875,0.199999999255)) ;
#152=CARTESIAN_POINT('Axis2P3D Location',(8.125,19.875,0.2)) ;
#157=CARTESIAN_POINT('Line Origine',(8.125,0.,0.2)) ;
#169=CARTESIAN_POINT('Axis2P3D Location',(-3.5527136788E-015,0.,-4.97512762154E-016)) ;
#34=DIRECTION('Axis2P3D Direction',(6.12323399574E-017,1.,0.)) ;
#35=DIRECTION('Axis2P3D XDirection',(-1.,6.12323399574E-017,-6.12323399574E-017)) ;
#39=DIRECTION('Vector Direction',(0.,0.,1.)) ;
#48=DIRECTION('Vector Direction',(-1.,0.,-6.12323399574E-017)) ;
#55=DIRECTION('Vector Direction',(-6.12323399574E-017,0.,1.)) ;
#62=DIRECTION('Vector Direction',(-1.,0.,-6.148927521E-017)) ;
#74=DIRECTION('Axis2P3D Direction',(-1.,6.12323399574E-017,-6.12323399574E-017)) ;
#75=DIRECTION('Axis2P3D XDirection',(-6.12323399574E-017,-1.,0.)) ;
#79=DIRECTION('Vector Direction',(0.,3.74939945666E-033,1.)) ;
#88=DIRECTION('Vector Direction',(-8.93764447497E-017,-1.,0.)) ;
#93=DIRECTION('Vector Direction',(-8.93764447497E-017,-1.,0.)) ;
#105=DIRECTION('Axis2P3D Direction',(-6.12323399574E-017,3.74939945666E-033,1.)) ;
#106=DIRECTION('Axis2P3D XDirection',(-6.12323399574E-017,-1.,0.)) ;
#110=DIRECTION('Vector Direction',(1.,-6.12323399574E-017,6.12323399574E-017)) ;
#117=DIRECTION('Vector Direction',(8.93764447497E-017,1.,0.)) ;
#129=DIRECTION('Axis2P3D Direction',(1.,-6.12323399574E-017,6.12323399574E-017)) ;
#130=DIRECTION('Axis2P3D XDirection',(6.12323399574E-017,1.,0.)) ;
#134=DIRECTION('Vector Direction',(-6.12323399574E-017,0.,1.)) ;
#141=DIRECTION('Vector Direction',(6.12323399574E-017,1.,0.)) ;
#153=DIRECTION('Axis2P3D Direction',(-6.12323399574E-017,3.74939945666E-033,1.)) ;
#154=DIRECTION('Axis2P3D XDirection',(-6.12323399574E-017,-1.,0.)) ;
#158=DIRECTION('Vector Direction',(1.,-6.12323399574E-017,6.148927521E-017)) ;
#170=DIRECTION('Axis2P3D Direction',(-6.12323399574E-017,-1.,0.)) ;
#171=DIRECTION('Axis2P3D XDirection',(1.,-6.12323399574E-017,6.12323399574E-017)) ;
#31=PRESENTATION_LAYER_ASSIGNMENT('1',' ',(#22)) ;
#8=PRODUCT_RELATED_PRODUCT_CATEGORY('part',$,(#5)) ;
#7=PRODUCT_CATEGORY('part','specification') ;
#30=STYLED_ITEM(' ',(#29),#22) ;
#29=PRESENTATION_STYLE_ASSIGNMENT((#28)) ;
#28=SURFACE_STYLE_USAGE(.BOTH.,#27) ;
#27=SURFACE_SIDE_STYLE(' ',(#26)) ;
#26=SURFACE_STYLE_FILL_AREA(#25) ;
#25=FILL_AREA_STYLE(' ',(#24)) ;
#24=FILL_AREA_STYLE_COLOUR(' ',#23) ;
#40=VECTOR('Line Direction',#39,1.) ;
#49=VECTOR('Line Direction',#48,1.) ;
#56=VECTOR('Line Direction',#55,1.) ;
#63=VECTOR('Line Direction',#62,1.) ;
#80=VECTOR('Line Direction',#79,1.) ;
#89=VECTOR('Line Direction',#88,1.) ;
#94=VECTOR('Line Direction',#93,1.) ;
#111=VECTOR('Line Direction',#110,1.) ;
#118=VECTOR('Line Direction',#117,1.) ;
#135=VECTOR('Line Direction',#134,1.) ;
#142=VECTOR('Line Direction',#141,1.) ;
#159=VECTOR('Line Direction',#158,1.) ;
#16=UNCERTAINTY_MEASURE_WITH_UNIT(LENGTH_MEASURE(0.005),#12,'distance_accuracy_value','CONFUSED CURVE UNCERTAINTY') ;
#182=SHAPE_REPRESENTATION_RELATIONSHIP(' ',' ',#20,#181) ;
#67=ORIENTED_EDGE('',*,*,#46,.F.) ;
#68=ORIENTED_EDGE('',*,*,#53,.T.) ;
#69=ORIENTED_EDGE('',*,*,#60,.T.) ;
#70=ORIENTED_EDGE('',*,*,#65,.F.) ;
#98=ORIENTED_EDGE('',*,*,#86,.F.) ;
#99=ORIENTED_EDGE('',*,*,#91,.T.) ;
#100=ORIENTED_EDGE('',*,*,#46,.T.) ;
#101=ORIENTED_EDGE('',*,*,#96,.F.) ;
#122=ORIENTED_EDGE('',*,*,#91,.F.) ;
#123=ORIENTED_EDGE('',*,*,#115,.F.) ;
#124=ORIENTED_EDGE('',*,*,#120,.F.) ;
#125=ORIENTED_EDGE('',*,*,#53,.F.) ;
#146=ORIENTED_EDGE('',*,*,#60,.F.) ;
#147=ORIENTED_EDGE('',*,*,#120,.T.) ;
#148=ORIENTED_EDGE('',*,*,#139,.T.) ;
#149=ORIENTED_EDGE('',*,*,#144,.F.) ;
#163=ORIENTED_EDGE('',*,*,#65,.T.) ;
#164=ORIENTED_EDGE('',*,*,#144,.T.) ;
#165=ORIENTED_EDGE('',*,*,#161,.T.) ;
#166=ORIENTED_EDGE('',*,*,#96,.T.) ;
#175=ORIENTED_EDGE('',*,*,#139,.F.) ;
#176=ORIENTED_EDGE('',*,*,#115,.T.) ;
#177=ORIENTED_EDGE('',*,*,#86,.T.) ;
#178=ORIENTED_EDGE('',*,*,#161,.F.) ;
#32=CLOSED_SHELL('Closed Shell',(#72,#103,#127,#151,#168,#180)) ;
#181=ADVANCED_BREP_SHAPE_REPRESENTATION('NONE',(#22),#17) ;
#72=ADVANCED_FACE('S3D - gedreht',(#71),#37,.T.) ;
#103=ADVANCED_FACE('S3D - gedreht',(#102),#77,.F.) ;
#127=ADVANCED_FACE('S3D - gedreht',(#126),#108,.F.) ;
#151=ADVANCED_FACE('S3D - gedreht',(#150),#132,.F.) ;
#168=ADVANCED_FACE('S3D - gedreht',(#167),#156,.T.) ;
#180=ADVANCED_FACE('S3D - gedreht',(#179),#173,.T.) ;
#4=APPLICATION_PROTOCOL_DEFINITION('international standard','automotive_design',2001,#1) ;
#22=MANIFOLD_SOLID_BREP('S3D - gedreht',#32) ;
#23=DRAUGHTING_PRE_DEFINED_COLOUR('yellow') ;
#46=EDGE_CURVE('',#43,#45,#41,.T.) ;
#53=EDGE_CURVE('',#43,#52,#50,.T.) ;
#60=EDGE_CURVE('',#52,#59,#57,.T.) ;
#65=EDGE_CURVE('',#45,#59,#64,.T.) ;
#86=EDGE_CURVE('',#83,#85,#81,.T.) ;
#91=EDGE_CURVE('',#83,#43,#90,.F.) ;
#96=EDGE_CURVE('',#85,#45,#95,.F.) ;
#115=EDGE_CURVE('',#114,#83,#112,.T.) ;
#120=EDGE_CURVE('',#52,#114,#119,.F.) ;
#139=EDGE_CURVE('',#114,#138,#136,.T.) ;
#144=EDGE_CURVE('',#59,#138,#143,.F.) ;
#161=EDGE_CURVE('',#138,#85,#160,.T.) ;
#66=EDGE_LOOP('',(#67,#68,#69,#70)) ;
#97=EDGE_LOOP('',(#98,#99,#100,#101)) ;
#121=EDGE_LOOP('',(#122,#123,#124,#125)) ;
#145=EDGE_LOOP('',(#146,#147,#148,#149)) ;
#162=EDGE_LOOP('',(#163,#164,#165,#166)) ;
#174=EDGE_LOOP('',(#175,#176,#177,#178)) ;
#71=FACE_OUTER_BOUND('',#66,.T.) ;
#102=FACE_OUTER_BOUND('',#97,.T.) ;
#126=FACE_OUTER_BOUND('',#121,.T.) ;
#150=FACE_OUTER_BOUND('',#145,.T.) ;
#167=FACE_OUTER_BOUND('',#162,.T.) ;
#179=FACE_OUTER_BOUND('',#174,.T.) ;
#41=LINE('Line',#38,#40) ;
#50=LINE('Line',#47,#49) ;
#57=LINE('Line',#54,#56) ;
#64=LINE('Line',#61,#63) ;
#81=LINE('Line',#78,#80) ;
#90=LINE('Line',#87,#89) ;
#95=LINE('Line',#92,#94) ;
#112=LINE('Line',#109,#111) ;
#119=LINE('Line',#116,#118) ;
#136=LINE('Line',#133,#135) ;
#143=LINE('Line',#140,#142) ;
#160=LINE('Line',#157,#159) ;
#37=PLANE('',#36) ;
#77=PLANE('',#76) ;
#108=PLANE('',#107) ;
#132=PLANE('',#131) ;
#156=PLANE('',#155) ;
#173=PLANE('',#172) ;
#14=PLANE_ANGLE_MEASURE_WITH_UNIT(PLANE_ANGLE_MEASURE(0.0174532925199),#13) ;
#9=PRODUCT_CATEGORY_RELATIONSHIP(' ',' ',#7,#8) ;
#6=PRODUCT_DEFINITION_FORMATION_WITH_SPECIFIED_SOURCE('',' ',#5,.NOT_KNOWN.) ;
#21=SHAPE_DEFINITION_REPRESENTATION(#11,#20) ;
#43=VERTEX_POINT('',#42) ;
#45=VERTEX_POINT('',#44) ;
#52=VERTEX_POINT('',#51) ;
#59=VERTEX_POINT('',#58) ;
#83=VERTEX_POINT('',#82) ;
#85=VERTEX_POINT('',#84) ;
#114=VERTEX_POINT('',#113) ;
#138=VERTEX_POINT('',#137) ;
#12=(LENGTH_UNIT()NAMED_UNIT(*)SI_UNIT(.MILLI.,.METRE.)) ;
#13=(NAMED_UNIT(*)PLANE_ANGLE_UNIT()SI_UNIT($,.RADIAN.)) ;
#15=(NAMED_UNIT(*)SI_UNIT($,.STERADIAN.)SOLID_ANGLE_UNIT()) ;
#17=(GEOMETRIC_REPRESENTATION_CONTEXT(3)GLOBAL_UNCERTAINTY_ASSIGNED_CONTEXT((#16))GLOBAL_UNIT_ASSIGNED_CONTEXT((#12,#13,#15))REPRESENTATION_CONTEXT(' ',' ')) ;
ENDSEC;
END-ISO-10303-21;
