ISO-10303-21;
HEADER;
FILE_DESCRIPTION(('CATIA V5R24 STEP','CAx-IF Rec.Pracs.--- Model Styling and Organization---1.2---2011-12-15'),'2;1');

FILE_NAME ('019564-2_1_1719450000_1719450000.stp','2018-05-22T12:18:11+00:00',('none'),('Weidmueller'),'CATIA Version 5-6 Release 2014 SP4 HF52','CATIA V5 STEP AP214','none');

FILE_SCHEMA(('AUTOMOTIVE_DESIGN { 1 0 10303 214 1 1 1 1 }'));

ENDSEC;
DATA;
#5=PRODUCT('1719450000_GWDR_PG9-PO','','',(#2)) ;
#2=PRODUCT_CONTEXT(' ',#1,'mechanical') ;
#1=APPLICATION_CONTEXT('automotive design') ;
#10=PRODUCT_DEFINITION('',' ',#6,#3) ;
#3=PRODUCT_DEFINITION_CONTEXT('part definition',#1,' ') ;
#11=PRODUCT_DEFINITION_SHAPE(' ',' ',#10) ;
#446=MECHANICAL_DESIGN_GEOMETRIC_PRESENTATION_REPRESENTATION(' ',(#78,#110,#133,#198,#216,#248,#280,#298,#316,#345,#377,#407,#430,#443,#29),#16) ;
#19=SHAPE_REPRESENTATION(' ',(#18),#16) ;
#18=AXIS2_PLACEMENT_3D(' ',#17,$,$) ;
#34=AXIS2_PLACEMENT_3D('Torus Axis2P3D',#31,#32,#33) ;
#38=AXIS2_PLACEMENT_3D('Circle Axis2P3D',#36,#37,$) ;
#47=AXIS2_PLACEMENT_3D('Circle Axis2P3D',#45,#46,$) ;
#54=AXIS2_PLACEMENT_3D('Circle Axis2P3D',#52,#53,$) ;
#61=AXIS2_PLACEMENT_3D('Circle Axis2P3D',#59,#60,$) ;
#82=AXIS2_PLACEMENT_3D('Cylinder Axis2P3D',#79,#80,#81) ;
#93=AXIS2_PLACEMENT_3D('Circle Axis2P3D',#91,#92,$) ;
#114=AXIS2_PLACEMENT_3D('Torus Axis2P3D',#111,#112,#113) ;
#118=AXIS2_PLACEMENT_3D('Circle Axis2P3D',#116,#117,$) ;
#123=AXIS2_PLACEMENT_3D('Circle Axis2P3D',#121,#122,$) ;
#137=AXIS2_PLACEMENT_3D('Plane Axis2P3D',#134,#135,#136) ;
#202=AXIS2_PLACEMENT_3D('Cylinder Axis2P3D',#199,#200,#201) ;
#206=AXIS2_PLACEMENT_3D('Circle Axis2P3D',#204,#205,$) ;
#220=AXIS2_PLACEMENT_3D('Torus Axis2P3D',#217,#218,#219) ;
#224=AXIS2_PLACEMENT_3D('Circle Axis2P3D',#222,#223,$) ;
#233=AXIS2_PLACEMENT_3D('Circle Axis2P3D',#231,#232,$) ;
#238=AXIS2_PLACEMENT_3D('Circle Axis2P3D',#236,#237,$) ;
#252=AXIS2_PLACEMENT_3D('Torus Axis2P3D',#249,#250,#251) ;
#256=AXIS2_PLACEMENT_3D('Circle Axis2P3D',#254,#255,$) ;
#263=AXIS2_PLACEMENT_3D('Circle Axis2P3D',#261,#262,$) ;
#270=AXIS2_PLACEMENT_3D('Circle Axis2P3D',#268,#269,$) ;
#284=AXIS2_PLACEMENT_3D('Torus Axis2P3D',#281,#282,#283) ;
#288=AXIS2_PLACEMENT_3D('Circle Axis2P3D',#286,#287,$) ;
#302=AXIS2_PLACEMENT_3D('Torus Axis2P3D',#299,#300,#301) ;
#306=AXIS2_PLACEMENT_3D('Circle Axis2P3D',#304,#305,$) ;
#320=AXIS2_PLACEMENT_3D('Plane Axis2P3D',#317,#318,#319) ;
#328=AXIS2_PLACEMENT_3D('Circle Axis2P3D',#326,#327,$) ;
#337=AXIS2_PLACEMENT_3D('Circle Axis2P3D',#335,#336,$) ;
#349=AXIS2_PLACEMENT_3D('Cylinder Axis2P3D',#346,#347,#348) ;
#360=AXIS2_PLACEMENT_3D('Circle Axis2P3D',#358,#359,$) ;
#381=AXIS2_PLACEMENT_3D('Cylinder Axis2P3D',#378,#379,#380) ;
#411=AXIS2_PLACEMENT_3D('Torus Axis2P3D',#408,#409,#410) ;
#415=AXIS2_PLACEMENT_3D('Circle Axis2P3D',#413,#414,$) ;
#420=AXIS2_PLACEMENT_3D('Circle Axis2P3D',#418,#419,$) ;
#434=AXIS2_PLACEMENT_3D('Torus Axis2P3D',#431,#432,#433) ;
#17=CARTESIAN_POINT(' ',(0.,0.,0.)) ;
#31=CARTESIAN_POINT('Axis2P3D Location',(9.5,9.5,1.8)) ;
#36=CARTESIAN_POINT('Axis2P3D Location',(9.5,9.5,1.8)) ;
#40=CARTESIAN_POINT('Vertex',(0.,9.5,1.8)) ;
#42=CARTESIAN_POINT('Vertex',(19.,9.5,1.8)) ;
#45=CARTESIAN_POINT('Axis2P3D Location',(0.2,9.5,1.8)) ;
#49=CARTESIAN_POINT('Vertex',(0.2,9.5,2.)) ;
#52=CARTESIAN_POINT('Axis2P3D Location',(9.5,9.5,2.)) ;
#56=CARTESIAN_POINT('Vertex',(18.8,9.5,2.)) ;
#59=CARTESIAN_POINT('Axis2P3D Location',(18.8,9.5,1.8)) ;
#79=CARTESIAN_POINT('Axis2P3D Location',(9.5,9.5,2.)) ;
#84=CARTESIAN_POINT('Line Origine',(19.,9.5,2.)) ;
#88=CARTESIAN_POINT('Vertex',(19.,9.5,0.199999999255)) ;
#91=CARTESIAN_POINT('Axis2P3D Location',(9.5,9.5,0.199999999255)) ;
#95=CARTESIAN_POINT('Vertex',(0.,9.5,0.199999999255)) ;
#98=CARTESIAN_POINT('Line Origine',(0.,9.5,2.)) ;
#111=CARTESIAN_POINT('Axis2P3D Location',(9.5,9.5,1.8)) ;
#116=CARTESIAN_POINT('Axis2P3D Location',(9.5,9.5,1.8)) ;
#121=CARTESIAN_POINT('Axis2P3D Location',(9.5,9.5,2.)) ;
#134=CARTESIAN_POINT('Axis2P3D Location',(9.5,9.5,2.)) ;
#144=CARTESIAN_POINT('Control Point',(17.3000000007,9.5,2.)) ;
#145=CARTESIAN_POINT('Control Point',(17.3000000007,8.67911827774,2.)) ;
#146=CARTESIAN_POINT('Control Point',(17.1920117302,7.85823728904,2.)) ;
#147=CARTESIAN_POINT('Control Point',(16.9759556358,7.05612574262,2.)) ;
#148=CARTESIAN_POINT('Control Point',(16.3380916062,5.52800029636,2.)) ;
#149=CARTESIAN_POINT('Control Point',(15.3267162452,4.21683740241,2.)) ;
#150=CARTESIAN_POINT('Control Point',(14.7370090322,3.63176598369,2.)) ;
#151=CARTESIAN_POINT('Control Point',(13.4179016429,2.63076967777,2.)) ;
#152=CARTESIAN_POINT('Control Point',(11.8847916879,2.0049884688,2.)) ;
#153=CARTESIAN_POINT('Control Point',(11.0809999954,1.79526943625,2.)) ;
#154=CARTESIAN_POINT('Control Point',(9.43758151035,1.59225806875,2.)) ;
#155=CARTESIAN_POINT('Control Point',(7.79757537355,1.82118631441,2.)) ;
#156=CARTESIAN_POINT('Control Point',(6.99719416856,2.04356673663,2.)) ;
#157=CARTESIAN_POINT('Control Point',(5.47415096363,2.69347239124,2.)) ;
#158=CARTESIAN_POINT('Control Point',(4.17101169465,3.71516526983,2.)) ;
#159=CARTESIAN_POINT('Control Point',(3.59061308336,4.30947205936,2.)) ;
#160=CARTESIAN_POINT('Control Point',(2.61491470288,5.61653908292,2.)) ;
#161=CARTESIAN_POINT('Control Point',(2.00488933882,7.12835825457,2.)) ;
#162=CARTESIAN_POINT('Control Point',(1.80160754092,7.90747888736,2.)) ;
#163=CARTESIAN_POINT('Control Point',(1.69999999925,8.70373933015,2.)) ;
#164=CARTESIAN_POINT('Control Point',(1.69999999925,9.5,2.)) ;
#165=CARTESIAN_POINT('Vertex',(17.3000000007,9.5,2.)) ;
#167=CARTESIAN_POINT('Vertex',(1.69999999925,9.5,2.)) ;
#171=CARTESIAN_POINT('Control Point',(1.69999999925,9.5,2.)) ;
#172=CARTESIAN_POINT('Control Point',(1.69999999925,10.3208817224,2.)) ;
#173=CARTESIAN_POINT('Control Point',(1.80798826988,11.1417627113,2.)) ;
#174=CARTESIAN_POINT('Control Point',(2.02404436413,11.943874257,2.)) ;
#175=CARTESIAN_POINT('Control Point',(2.6619083936,13.4719997036,2.)) ;
#176=CARTESIAN_POINT('Control Point',(3.67328375492,14.7831625977,2.)) ;
#177=CARTESIAN_POINT('Control Point',(4.26299096774,15.3682340162,2.)) ;
#178=CARTESIAN_POINT('Control Point',(5.58209835701,16.3692303222,2.)) ;
#179=CARTESIAN_POINT('Control Point',(7.11520831198,16.9950115311,2.)) ;
#180=CARTESIAN_POINT('Control Point',(7.91900000473,17.2047305638,2.)) ;
#181=CARTESIAN_POINT('Control Point',(9.56241848962,17.4077419312,2.)) ;
#182=CARTESIAN_POINT('Control Point',(11.2024246262,17.1788136856,2.)) ;
#183=CARTESIAN_POINT('Control Point',(12.0028058316,16.9564332633,2.)) ;
#184=CARTESIAN_POINT('Control Point',(13.5258490365,16.3065276087,2.)) ;
#185=CARTESIAN_POINT('Control Point',(14.8289883054,15.2848347301,2.)) ;
#186=CARTESIAN_POINT('Control Point',(15.4093869167,14.6905279407,2.)) ;
#187=CARTESIAN_POINT('Control Point',(16.385085297,13.3834609172,2.)) ;
#188=CARTESIAN_POINT('Control Point',(16.9951106611,11.8716417458,2.)) ;
#189=CARTESIAN_POINT('Control Point',(17.1983924592,11.0925211123,2.)) ;
#190=CARTESIAN_POINT('Control Point',(17.3000000007,10.2962606697,2.)) ;
#191=CARTESIAN_POINT('Control Point',(17.3000000007,9.5,2.)) ;
#199=CARTESIAN_POINT('Axis2P3D Location',(9.5,9.5,2.)) ;
#204=CARTESIAN_POINT('Axis2P3D Location',(9.5,9.5,0.199999999255)) ;
#217=CARTESIAN_POINT('Axis2P3D Location',(9.5,9.5,0.2)) ;
#222=CARTESIAN_POINT('Axis2P3D Location',(9.5,9.5,0.)) ;
#226=CARTESIAN_POINT('Vertex',(0.2,9.5,0.)) ;
#228=CARTESIAN_POINT('Vertex',(18.8,9.5,0.)) ;
#231=CARTESIAN_POINT('Axis2P3D Location',(0.2,9.5,0.2)) ;
#236=CARTESIAN_POINT('Axis2P3D Location',(18.8,9.5,0.2)) ;
#249=CARTESIAN_POINT('Axis2P3D Location',(9.5,9.5,1.8)) ;
#254=CARTESIAN_POINT('Axis2P3D Location',(1.7,9.5,1.8)) ;
#258=CARTESIAN_POINT('Vertex',(1.9,9.5,1.8)) ;
#261=CARTESIAN_POINT('Axis2P3D Location',(17.3,9.5,1.8)) ;
#265=CARTESIAN_POINT('Vertex',(17.1,9.5,1.8)) ;
#268=CARTESIAN_POINT('Axis2P3D Location',(9.5,9.5,1.8)) ;
#281=CARTESIAN_POINT('Axis2P3D Location',(9.5,9.5,1.8)) ;
#286=CARTESIAN_POINT('Axis2P3D Location',(9.5,9.5,1.8)) ;
#299=CARTESIAN_POINT('Axis2P3D Location',(9.5,9.5,0.2)) ;
#304=CARTESIAN_POINT('Axis2P3D Location',(9.5,9.5,0.)) ;
#317=CARTESIAN_POINT('Axis2P3D Location',(9.5,9.5,0.)) ;
#326=CARTESIAN_POINT('Axis2P3D Location',(9.5,9.5,0.)) ;
#330=CARTESIAN_POINT('Vertex',(17.3000000007,9.5,0.)) ;
#332=CARTESIAN_POINT('Vertex',(1.69999999925,9.5,0.)) ;
#335=CARTESIAN_POINT('Axis2P3D Location',(9.5,9.5,0.)) ;
#346=CARTESIAN_POINT('Axis2P3D Location',(9.5,9.5,2.)) ;
#351=CARTESIAN_POINT('Line Origine',(17.1,9.5,2.)) ;
#355=CARTESIAN_POINT('Vertex',(17.1,9.5,0.199999999255)) ;
#358=CARTESIAN_POINT('Axis2P3D Location',(9.5,9.5,0.199999999255)) ;
#362=CARTESIAN_POINT('Vertex',(1.9,9.5,0.199999999255)) ;
#365=CARTESIAN_POINT('Line Origine',(1.9,9.5,2.)) ;
#378=CARTESIAN_POINT('Axis2P3D Location',(9.5,9.5,2.)) ;
#384=CARTESIAN_POINT('Control Point',(1.9,9.5,0.199999999255)) ;
#385=CARTESIAN_POINT('Control Point',(1.9,10.6938052084,0.199999999292)) ;
#386=CARTESIAN_POINT('Control Point',(2.13440310453,11.8876104167,0.199999999329)) ;
#387=CARTESIAN_POINT('Control Point',(2.60344097122,13.0199679958,0.199999999367)) ;
#388=CARTESIAN_POINT('Control Point',(3.96024043824,15.0397595618,0.199999999441)) ;
#389=CARTESIAN_POINT('Control Point',(5.98003200422,16.3965590288,0.199999999516)) ;
#390=CARTESIAN_POINT('Control Point',(7.11238958327,16.8655968955,0.199999999553)) ;
#391=CARTESIAN_POINT('Control Point',(9.5,17.3344031045,0.199999999627)) ;
#392=CARTESIAN_POINT('Control Point',(11.8876104167,16.8655968955,0.199999999702)) ;
#393=CARTESIAN_POINT('Control Point',(13.0199679958,16.3965590288,0.199999999739)) ;
#394=CARTESIAN_POINT('Control Point',(15.0397595618,15.0397595618,0.199999999814)) ;
#395=CARTESIAN_POINT('Control Point',(16.3965590288,13.0199679958,0.199999999888)) ;
#396=CARTESIAN_POINT('Control Point',(16.8655968955,11.8876104167,0.199999999925)) ;
#397=CARTESIAN_POINT('Control Point',(17.1,10.6938052084,0.199999999963)) ;
#398=CARTESIAN_POINT('Control Point',(17.1,9.5,0.2)) ;
#408=CARTESIAN_POINT('Axis2P3D Location',(9.5,9.5,0.2)) ;
#413=CARTESIAN_POINT('Axis2P3D Location',(1.7,9.5,0.2)) ;
#418=CARTESIAN_POINT('Axis2P3D Location',(17.3,9.5,0.2)) ;
#431=CARTESIAN_POINT('Axis2P3D Location',(9.5,9.5,0.2)) ;
#32=DIRECTION('Axis2P3D Direction',(0.,0.,1.)) ;
#33=DIRECTION('Axis2P3D XDirection',(1.,0.,0.)) ;
#37=DIRECTION('Axis2P3D Direction',(0.,0.,1.)) ;
#46=DIRECTION('Axis2P3D Direction',(1.22464679915E-016,1.,-0.)) ;
#53=DIRECTION('Axis2P3D Direction',(0.,0.,1.)) ;
#60=DIRECTION('Axis2P3D Direction',(0.,-1.,0.)) ;
#80=DIRECTION('Axis2P3D Direction',(0.,0.,-1.)) ;
#81=DIRECTION('Axis2P3D XDirection',(-1.,0.,0.)) ;
#85=DIRECTION('Vector Direction',(0.,0.,-1.)) ;
#92=DIRECTION('Axis2P3D Direction',(0.,0.,-1.)) ;
#99=DIRECTION('Vector Direction',(0.,0.,-1.)) ;
#112=DIRECTION('Axis2P3D Direction',(0.,0.,1.)) ;
#113=DIRECTION('Axis2P3D XDirection',(-1.,-3.73969860926E-016,0.)) ;
#117=DIRECTION('Axis2P3D Direction',(0.,0.,1.)) ;
#122=DIRECTION('Axis2P3D Direction',(0.,0.,1.)) ;
#135=DIRECTION('Axis2P3D Direction',(0.,0.,1.)) ;
#136=DIRECTION('Axis2P3D XDirection',(1.,0.,0.)) ;
#200=DIRECTION('Axis2P3D Direction',(-0.,0.,-1.)) ;
#201=DIRECTION('Axis2P3D XDirection',(1.,1.22464679915E-016,-0.)) ;
#205=DIRECTION('Axis2P3D Direction',(-0.,0.,-1.)) ;
#218=DIRECTION('Axis2P3D Direction',(0.,0.,1.)) ;
#219=DIRECTION('Axis2P3D XDirection',(1.,0.,0.)) ;
#223=DIRECTION('Axis2P3D Direction',(0.,0.,1.)) ;
#232=DIRECTION('Axis2P3D Direction',(1.22464679915E-016,1.,-0.)) ;
#237=DIRECTION('Axis2P3D Direction',(0.,-1.,0.)) ;
#250=DIRECTION('Axis2P3D Direction',(0.,0.,1.)) ;
#251=DIRECTION('Axis2P3D XDirection',(-1.,-2.22044604925E-016,0.)) ;
#255=DIRECTION('Axis2P3D Direction',(-2.22044604925E-016,1.,0.)) ;
#262=DIRECTION('Axis2P3D Direction',(5.4366913486E-016,-1.,0.)) ;
#269=DIRECTION('Axis2P3D Direction',(0.,0.,1.)) ;
#282=DIRECTION('Axis2P3D Direction',(0.,0.,1.)) ;
#283=DIRECTION('Axis2P3D XDirection',(1.,0.,0.)) ;
#287=DIRECTION('Axis2P3D Direction',(0.,0.,1.)) ;
#300=DIRECTION('Axis2P3D Direction',(0.,0.,1.)) ;
#301=DIRECTION('Axis2P3D XDirection',(-1.,-3.90408096571E-016,0.)) ;
#305=DIRECTION('Axis2P3D Direction',(0.,0.,1.)) ;
#318=DIRECTION('Axis2P3D Direction',(0.,0.,1.)) ;
#319=DIRECTION('Axis2P3D XDirection',(1.,0.,0.)) ;
#327=DIRECTION('Axis2P3D Direction',(0.,0.,1.)) ;
#336=DIRECTION('Axis2P3D Direction',(0.,0.,1.)) ;
#347=DIRECTION('Axis2P3D Direction',(-0.,0.,-1.)) ;
#348=DIRECTION('Axis2P3D XDirection',(1.,1.22464679915E-016,-0.)) ;
#352=DIRECTION('Vector Direction',(0.,0.,-1.)) ;
#359=DIRECTION('Axis2P3D Direction',(-0.,0.,-1.)) ;
#366=DIRECTION('Vector Direction',(0.,0.,-1.)) ;
#379=DIRECTION('Axis2P3D Direction',(0.,0.,-1.)) ;
#380=DIRECTION('Axis2P3D XDirection',(-1.,0.,0.)) ;
#409=DIRECTION('Axis2P3D Direction',(0.,0.,1.)) ;
#410=DIRECTION('Axis2P3D XDirection',(1.,0.,0.)) ;
#414=DIRECTION('Axis2P3D Direction',(-3.21624529935E-016,1.,0.)) ;
#419=DIRECTION('Axis2P3D Direction',(0.,-1.,0.)) ;
#432=DIRECTION('Axis2P3D Direction',(0.,0.,1.)) ;
#433=DIRECTION('Axis2P3D XDirection',(-1.,-2.33731163079E-016,0.)) ;
#8=PRODUCT_RELATED_PRODUCT_CATEGORY('part',$,(#5)) ;
#7=PRODUCT_CATEGORY('part','specification') ;
#29=STYLED_ITEM(' ',(#28),#21) ;
#28=PRESENTATION_STYLE_ASSIGNMENT((#27)) ;
#77=PRESENTATION_STYLE_ASSIGNMENT((#76)) ;
#27=SURFACE_STYLE_USAGE(.BOTH.,#26) ;
#76=SURFACE_STYLE_USAGE(.BOTH.,#75) ;
#26=SURFACE_SIDE_STYLE(' ',(#25)) ;
#75=SURFACE_SIDE_STYLE(' ',(#74)) ;
#25=SURFACE_STYLE_FILL_AREA(#24) ;
#74=SURFACE_STYLE_FILL_AREA(#73) ;
#24=FILL_AREA_STYLE(' ',(#23)) ;
#73=FILL_AREA_STYLE(' ',(#72)) ;
#23=FILL_AREA_STYLE_COLOUR(' ',#22) ;
#72=FILL_AREA_STYLE_COLOUR(' ',#71) ;
#86=VECTOR('Line Direction',#85,1.) ;
#100=VECTOR('Line Direction',#99,1.) ;
#353=VECTOR('Line Direction',#352,1.) ;
#367=VECTOR('Line Direction',#366,1.) ;
#15=UNCERTAINTY_MEASURE_WITH_UNIT(LENGTH_MEASURE(0.005),#12,'distance_accuracy_value','CONFUSED CURVE UNCERTAINTY') ;
#445=SHAPE_REPRESENTATION_RELATIONSHIP(' ',' ',#19,#444) ;
#65=ORIENTED_EDGE('',*,*,#44,.F.) ;
#66=ORIENTED_EDGE('',*,*,#51,.T.) ;
#67=ORIENTED_EDGE('',*,*,#58,.F.) ;
#68=ORIENTED_EDGE('',*,*,#63,.F.) ;
#104=ORIENTED_EDGE('',*,*,#44,.T.) ;
#105=ORIENTED_EDGE('',*,*,#90,.T.) ;
#106=ORIENTED_EDGE('',*,*,#97,.T.) ;
#107=ORIENTED_EDGE('',*,*,#102,.F.) ;
#127=ORIENTED_EDGE('',*,*,#51,.F.) ;
#128=ORIENTED_EDGE('',*,*,#120,.F.) ;
#129=ORIENTED_EDGE('',*,*,#63,.T.) ;
#130=ORIENTED_EDGE('',*,*,#125,.F.) ;
#140=ORIENTED_EDGE('',*,*,#58,.T.) ;
#141=ORIENTED_EDGE('',*,*,#125,.T.) ;
#194=ORIENTED_EDGE('',*,*,#169,.T.) ;
#195=ORIENTED_EDGE('',*,*,#192,.T.) ;
#210=ORIENTED_EDGE('',*,*,#90,.F.) ;
#211=ORIENTED_EDGE('',*,*,#120,.T.) ;
#212=ORIENTED_EDGE('',*,*,#102,.T.) ;
#213=ORIENTED_EDGE('',*,*,#208,.T.) ;
#242=ORIENTED_EDGE('',*,*,#230,.F.) ;
#243=ORIENTED_EDGE('',*,*,#235,.T.) ;
#244=ORIENTED_EDGE('',*,*,#97,.F.) ;
#245=ORIENTED_EDGE('',*,*,#240,.F.) ;
#274=ORIENTED_EDGE('',*,*,#260,.F.) ;
#275=ORIENTED_EDGE('',*,*,#169,.F.) ;
#276=ORIENTED_EDGE('',*,*,#267,.T.) ;
#277=ORIENTED_EDGE('',*,*,#272,.F.) ;
#292=ORIENTED_EDGE('',*,*,#192,.F.) ;
#293=ORIENTED_EDGE('',*,*,#260,.T.) ;
#294=ORIENTED_EDGE('',*,*,#290,.F.) ;
#295=ORIENTED_EDGE('',*,*,#267,.F.) ;
#310=ORIENTED_EDGE('',*,*,#235,.F.) ;
#311=ORIENTED_EDGE('',*,*,#308,.F.) ;
#312=ORIENTED_EDGE('',*,*,#240,.T.) ;
#313=ORIENTED_EDGE('',*,*,#208,.F.) ;
#323=ORIENTED_EDGE('',*,*,#308,.T.) ;
#324=ORIENTED_EDGE('',*,*,#230,.T.) ;
#341=ORIENTED_EDGE('',*,*,#334,.T.) ;
#342=ORIENTED_EDGE('',*,*,#339,.T.) ;
#371=ORIENTED_EDGE('',*,*,#272,.T.) ;
#372=ORIENTED_EDGE('',*,*,#357,.T.) ;
#373=ORIENTED_EDGE('',*,*,#364,.T.) ;
#374=ORIENTED_EDGE('',*,*,#369,.F.) ;
#401=ORIENTED_EDGE('',*,*,#357,.F.) ;
#402=ORIENTED_EDGE('',*,*,#290,.T.) ;
#403=ORIENTED_EDGE('',*,*,#369,.T.) ;
#404=ORIENTED_EDGE('',*,*,#399,.T.) ;
#424=ORIENTED_EDGE('',*,*,#399,.F.) ;
#425=ORIENTED_EDGE('',*,*,#417,.T.) ;
#426=ORIENTED_EDGE('',*,*,#334,.F.) ;
#427=ORIENTED_EDGE('',*,*,#422,.F.) ;
#437=ORIENTED_EDGE('',*,*,#417,.F.) ;
#438=ORIENTED_EDGE('',*,*,#364,.F.) ;
#439=ORIENTED_EDGE('',*,*,#422,.T.) ;
#440=ORIENTED_EDGE('',*,*,#339,.F.) ;
#196=FACE_BOUND('',#193,.T.) ;
#343=FACE_BOUND('',#340,.T.) ;
#30=CLOSED_SHELL('Closed Shell',(#70,#109,#132,#197,#215,#247,#279,#297,#315,#344,#376,#406,#429,#442)) ;
#444=ADVANCED_BREP_SHAPE_REPRESENTATION('NONE',(#21),#16) ;
#70=ADVANCED_FACE('Verrundung1',(#69),#35,.T.) ;
#109=ADVANCED_FACE('Verrundung1',(#108),#83,.T.) ;
#132=ADVANCED_FACE('Verrundung1',(#131),#115,.T.) ;
#197=ADVANCED_FACE('Verrundung1',(#142,#196),#138,.T.) ;
#215=ADVANCED_FACE('Verrundung1',(#214),#203,.T.) ;
#247=ADVANCED_FACE('Verrundung1',(#246),#221,.T.) ;
#279=ADVANCED_FACE('Verrundung1',(#278),#253,.T.) ;
#297=ADVANCED_FACE('Verrundung1',(#296),#285,.T.) ;
#315=ADVANCED_FACE('Verrundung1',(#314),#303,.T.) ;
#344=ADVANCED_FACE('Verrundung1',(#325,#343),#321,.F.) ;
#376=ADVANCED_FACE('Verrundung1',(#375),#350,.F.) ;
#406=ADVANCED_FACE('Verrundung1',(#405),#382,.F.) ;
#429=ADVANCED_FACE('Verrundung1',(#428),#412,.T.) ;
#442=ADVANCED_FACE('Verrundung1',(#441),#435,.T.) ;
#4=APPLICATION_PROTOCOL_DEFINITION('international standard','automotive_design',2001,#1) ;
#143=B_SPLINE_CURVE_WITH_KNOTS('',5,(#144,#145,#146,#147,#148,#149,#150,#151,#152,#153,#154,#155,#156,#157,#158,#159,#160,#161,#162,#163,#164),.UNSPECIFIED.,.F.,.U.,(6,3,3,3,3,3,6),(0.,5.82122716654,11.6424543411,17.4636815159,23.2849087282,29.1061359569,34.7527645969),.UNSPECIFIED.) ;
#170=B_SPLINE_CURVE_WITH_KNOTS('',5,(#171,#172,#173,#174,#175,#176,#177,#178,#179,#180,#181,#182,#183,#184,#185,#186,#187,#188,#189,#190,#191),.UNSPECIFIED.,.F.,.U.,(6,3,3,3,3,3,6),(0.,5.82122716774,11.6424543427,17.4636815171,23.2849087287,29.1061359575,34.7527645964),.UNSPECIFIED.) ;
#383=B_SPLINE_CURVE_WITH_KNOTS('',5,(#384,#385,#386,#387,#388,#389,#390,#391,#392,#393,#394,#395,#396,#397,#398),.UNSPECIFIED.,.F.,.U.,(6,3,3,3,6),(-11.9380520836,-5.96902604182,8.881784197E-016,5.96902604182,11.9380520836),.UNSPECIFIED.) ;
#21=MANIFOLD_SOLID_BREP('Verrundung1',#30) ;
#39=CIRCLE('generated circle',#38,9.5) ;
#48=CIRCLE('generated circle',#47,0.2) ;
#55=CIRCLE('generated circle',#54,9.3) ;
#62=CIRCLE('generated circle',#61,0.2) ;
#94=CIRCLE('generated circle',#93,9.5) ;
#119=CIRCLE('generated circle',#118,9.5) ;
#124=CIRCLE('generated circle',#123,9.3) ;
#207=CIRCLE('generated circle',#206,9.5) ;
#225=CIRCLE('generated circle',#224,9.3) ;
#234=CIRCLE('generated circle',#233,0.2) ;
#239=CIRCLE('generated circle',#238,0.2) ;
#257=CIRCLE('generated circle',#256,0.2) ;
#264=CIRCLE('generated circle',#263,0.2) ;
#271=CIRCLE('generated circle',#270,7.6) ;
#289=CIRCLE('generated circle',#288,7.6) ;
#307=CIRCLE('generated circle',#306,9.3) ;
#329=CIRCLE('generated circle',#328,7.80000000075) ;
#338=CIRCLE('generated circle',#337,7.80000000075) ;
#361=CIRCLE('generated circle',#360,7.6) ;
#416=CIRCLE('generated circle',#415,0.2) ;
#421=CIRCLE('generated circle',#420,0.2) ;
#22=COLOUR_RGB('Colour',0.823529411765,0.823529411765,1.) ;
#71=COLOUR_RGB('Colour',0.964705882353,0.937254901961,0.894117647059) ;
#78=OVER_RIDING_STYLED_ITEM(' ',(#77),#70,#29) ;
#110=OVER_RIDING_STYLED_ITEM(' ',(#77),#109,#29) ;
#133=OVER_RIDING_STYLED_ITEM(' ',(#77),#132,#29) ;
#198=OVER_RIDING_STYLED_ITEM(' ',(#77),#197,#29) ;
#216=OVER_RIDING_STYLED_ITEM(' ',(#77),#215,#29) ;
#248=OVER_RIDING_STYLED_ITEM(' ',(#77),#247,#29) ;
#280=OVER_RIDING_STYLED_ITEM(' ',(#77),#279,#29) ;
#298=OVER_RIDING_STYLED_ITEM(' ',(#77),#297,#29) ;
#316=OVER_RIDING_STYLED_ITEM(' ',(#77),#315,#29) ;
#345=OVER_RIDING_STYLED_ITEM(' ',(#77),#344,#29) ;
#377=OVER_RIDING_STYLED_ITEM(' ',(#77),#376,#29) ;
#407=OVER_RIDING_STYLED_ITEM(' ',(#77),#406,#29) ;
#430=OVER_RIDING_STYLED_ITEM(' ',(#77),#429,#29) ;
#443=OVER_RIDING_STYLED_ITEM(' ',(#77),#442,#29) ;
#83=CYLINDRICAL_SURFACE('generated cylinder',#82,9.5) ;
#203=CYLINDRICAL_SURFACE('generated cylinder',#202,9.5) ;
#350=CYLINDRICAL_SURFACE('generated cylinder',#349,7.6) ;
#382=CYLINDRICAL_SURFACE('generated cylinder',#381,7.6) ;
#35=TOROIDAL_SURFACE('homeo Torus',#34,9.3,0.2) ;
#115=TOROIDAL_SURFACE('homeo Torus',#114,9.3,0.2) ;
#221=TOROIDAL_SURFACE('homeo Torus',#220,9.3,0.2) ;
#253=TOROIDAL_SURFACE('homeo Torus',#252,7.8,0.2) ;
#285=TOROIDAL_SURFACE('homeo Torus',#284,7.8,0.2) ;
#303=TOROIDAL_SURFACE('homeo Torus',#302,9.3,0.2) ;
#412=TOROIDAL_SURFACE('homeo Torus',#411,7.8,0.2) ;
#435=TOROIDAL_SURFACE('homeo Torus',#434,7.8,0.2) ;
#44=EDGE_CURVE('',#41,#43,#39,.F.) ;
#51=EDGE_CURVE('',#41,#50,#48,.T.) ;
#58=EDGE_CURVE('',#57,#50,#55,.T.) ;
#63=EDGE_CURVE('',#43,#57,#62,.T.) ;
#90=EDGE_CURVE('',#43,#89,#87,.T.) ;
#97=EDGE_CURVE('',#89,#96,#94,.F.) ;
#102=EDGE_CURVE('',#41,#96,#101,.T.) ;
#120=EDGE_CURVE('',#43,#41,#119,.F.) ;
#125=EDGE_CURVE('',#50,#57,#124,.T.) ;
#169=EDGE_CURVE('',#166,#168,#143,.T.) ;
#192=EDGE_CURVE('',#168,#166,#170,.T.) ;
#208=EDGE_CURVE('',#96,#89,#207,.F.) ;
#230=EDGE_CURVE('',#227,#229,#225,.F.) ;
#235=EDGE_CURVE('',#227,#96,#234,.T.) ;
#240=EDGE_CURVE('',#229,#89,#239,.T.) ;
#260=EDGE_CURVE('',#168,#259,#257,.T.) ;
#267=EDGE_CURVE('',#166,#266,#264,.T.) ;
#272=EDGE_CURVE('',#259,#266,#271,.T.) ;
#290=EDGE_CURVE('',#266,#259,#289,.T.) ;
#308=EDGE_CURVE('',#229,#227,#307,.F.) ;
#334=EDGE_CURVE('',#331,#333,#329,.T.) ;
#339=EDGE_CURVE('',#333,#331,#338,.T.) ;
#357=EDGE_CURVE('',#266,#356,#354,.T.) ;
#364=EDGE_CURVE('',#356,#363,#361,.T.) ;
#369=EDGE_CURVE('',#259,#363,#368,.T.) ;
#399=EDGE_CURVE('',#363,#356,#383,.T.) ;
#417=EDGE_CURVE('',#363,#333,#416,.T.) ;
#422=EDGE_CURVE('',#356,#331,#421,.T.) ;
#64=EDGE_LOOP('',(#65,#66,#67,#68)) ;
#103=EDGE_LOOP('',(#104,#105,#106,#107)) ;
#126=EDGE_LOOP('',(#127,#128,#129,#130)) ;
#139=EDGE_LOOP('',(#140,#141)) ;
#193=EDGE_LOOP('',(#194,#195)) ;
#209=EDGE_LOOP('',(#210,#211,#212,#213)) ;
#241=EDGE_LOOP('',(#242,#243,#244,#245)) ;
#273=EDGE_LOOP('',(#274,#275,#276,#277)) ;
#291=EDGE_LOOP('',(#292,#293,#294,#295)) ;
#309=EDGE_LOOP('',(#310,#311,#312,#313)) ;
#322=EDGE_LOOP('',(#323,#324)) ;
#340=EDGE_LOOP('',(#341,#342)) ;
#370=EDGE_LOOP('',(#371,#372,#373,#374)) ;
#400=EDGE_LOOP('',(#401,#402,#403,#404)) ;
#423=EDGE_LOOP('',(#424,#425,#426,#427)) ;
#436=EDGE_LOOP('',(#437,#438,#439,#440)) ;
#69=FACE_OUTER_BOUND('',#64,.T.) ;
#108=FACE_OUTER_BOUND('',#103,.T.) ;
#131=FACE_OUTER_BOUND('',#126,.T.) ;
#142=FACE_OUTER_BOUND('',#139,.T.) ;
#214=FACE_OUTER_BOUND('',#209,.T.) ;
#246=FACE_OUTER_BOUND('',#241,.T.) ;
#278=FACE_OUTER_BOUND('',#273,.T.) ;
#296=FACE_OUTER_BOUND('',#291,.T.) ;
#314=FACE_OUTER_BOUND('',#309,.T.) ;
#325=FACE_OUTER_BOUND('',#322,.T.) ;
#375=FACE_OUTER_BOUND('',#370,.T.) ;
#405=FACE_OUTER_BOUND('',#400,.T.) ;
#428=FACE_OUTER_BOUND('',#423,.T.) ;
#441=FACE_OUTER_BOUND('',#436,.T.) ;
#87=LINE('Line',#84,#86) ;
#101=LINE('Line',#98,#100) ;
#354=LINE('Line',#351,#353) ;
#368=LINE('Line',#365,#367) ;
#138=PLANE('',#137) ;
#321=PLANE('',#320) ;
#9=PRODUCT_CATEGORY_RELATIONSHIP(' ',' ',#7,#8) ;
#6=PRODUCT_DEFINITION_FORMATION_WITH_SPECIFIED_SOURCE('',' ',#5,.NOT_KNOWN.) ;
#20=SHAPE_DEFINITION_REPRESENTATION(#11,#19) ;
#41=VERTEX_POINT('',#40) ;
#43=VERTEX_POINT('',#42) ;
#50=VERTEX_POINT('',#49) ;
#57=VERTEX_POINT('',#56) ;
#89=VERTEX_POINT('',#88) ;
#96=VERTEX_POINT('',#95) ;
#166=VERTEX_POINT('',#165) ;
#168=VERTEX_POINT('',#167) ;
#227=VERTEX_POINT('',#226) ;
#229=VERTEX_POINT('',#228) ;
#259=VERTEX_POINT('',#258) ;
#266=VERTEX_POINT('',#265) ;
#331=VERTEX_POINT('',#330) ;
#333=VERTEX_POINT('',#332) ;
#356=VERTEX_POINT('',#355) ;
#363=VERTEX_POINT('',#362) ;
#12=(LENGTH_UNIT()NAMED_UNIT(*)SI_UNIT(.MILLI.,.METRE.)) ;
#13=(NAMED_UNIT(*)PLANE_ANGLE_UNIT()SI_UNIT($,.RADIAN.)) ;
#14=(NAMED_UNIT(*)SI_UNIT($,.STERADIAN.)SOLID_ANGLE_UNIT()) ;
#16=(GEOMETRIC_REPRESENTATION_CONTEXT(3)GLOBAL_UNCERTAINTY_ASSIGNED_CONTEXT((#15))GLOBAL_UNIT_ASSIGNED_CONTEXT((#12,#13,#14))REPRESENTATION_CONTEXT(' ',' ')) ;
ENDSEC;
END-ISO-10303-21;
