ISO-10303-21;
HEADER;
FILE_DESCRIPTION(('CATIA V5 STEP Exchange','CAx-IF Rec.Pracs.--- Model Styling and Organization---1.5--- 2016-08-15','CAx-IF Rec.Pracs.---Supplemental Geometry---1.0---2011-11-01','CAx-IF Rec.Pracs.--- Composite Materials ---1.1---2010-07-15'),'2;1');

FILE_NAME ('D1617510_0', '2024-06-28T08:36:27+00:00', ('none'), ('Weidmueller'), 'CATIA Version 5-6 Release 2022 SP4 HF5', 'CATIA V5 STEP AP214 v3', 'none');

FILE_SCHEMA(('AUTOMOTIVE_DESIGN { 1 0 10303 214 1 1 1 1 }'));

ENDSEC;
DATA;
#5=PRODUCT('S3D_CXX_XXX','','',(#2)) ;
#2=PRODUCT_CONTEXT(' ',#1,'mechanical') ;
#1=APPLICATION_CONTEXT('automotive design') ;
#10=PRODUCT_DEFINITION('',' ',#6,#3) ;
#3=PRODUCT_DEFINITION_CONTEXT('part definition',#1,' ') ;
#11=PRODUCT_DEFINITION_SHAPE(' ',' ',#10) ;
#602=MECHANICAL_DESIGN_GEOMETRIC_PRESENTATION_REPRESENTATION(' ',(#78,#102,#142,#176,#201,#227,#244,#262,#311,#383,#410,#435,#460,#478,#492,#524,#537,#569,#582,#593,#599,#29),#16) ;
#19=SHAPE_REPRESENTATION(' ',(#18),#16) ;
#18=AXIS2_PLACEMENT_3D(' ',#17,$,$) ;
#34=AXIS2_PLACEMENT_3D('Cylinder Axis2P3D',#31,#32,#33) ;
#47=AXIS2_PLACEMENT_3D('Circle Axis2P3D',#45,#46,$) ;
#61=AXIS2_PLACEMENT_3D('Circle Axis2P3D',#59,#60,$) ;
#82=AXIS2_PLACEMENT_3D('Sphere Axis2P3D',#79,#80,#81) ;
#86=AXIS2_PLACEMENT_3D('Circle Axis2P3D',#84,#85,$) ;
#93=AXIS2_PLACEMENT_3D('Circle Axis2P3D',#91,#92,$) ;
#106=AXIS2_PLACEMENT_3D('Plane Axis2P3D',#103,#104,#105) ;
#146=AXIS2_PLACEMENT_3D('Cylinder Axis2P3D',#143,#144,#145) ;
#150=AXIS2_PLACEMENT_3D('Circle Axis2P3D',#148,#149,$) ;
#164=AXIS2_PLACEMENT_3D('Circle Axis2P3D',#162,#163,$) ;
#180=AXIS2_PLACEMENT_3D('Plane Axis2P3D',#177,#178,#179) ;
#205=AXIS2_PLACEMENT_3D('Plane Axis2P3D',#202,#203,#204) ;
#231=AXIS2_PLACEMENT_3D('Sphere Axis2P3D',#228,#229,#230) ;
#235=AXIS2_PLACEMENT_3D('Circle Axis2P3D',#233,#234,$) ;
#248=AXIS2_PLACEMENT_3D('Cylinder Axis2P3D',#245,#246,#247) ;
#252=AXIS2_PLACEMENT_3D('Circle Axis2P3D',#250,#251,$) ;
#266=AXIS2_PLACEMENT_3D('Plane Axis2P3D',#263,#264,#265) ;
#286=AXIS2_PLACEMENT_3D('Circle Axis2P3D',#284,#285,$) ;
#348=AXIS2_PLACEMENT_3D('Circle Axis2P3D',#346,#347,$) ;
#357=AXIS2_PLACEMENT_3D('Circle Axis2P3D',#355,#356,$) ;
#366=AXIS2_PLACEMENT_3D('Circle Axis2P3D',#364,#365,$) ;
#375=AXIS2_PLACEMENT_3D('Circle Axis2P3D',#373,#374,$) ;
#387=AXIS2_PLACEMENT_3D('Plane Axis2P3D',#384,#385,#386) ;
#414=AXIS2_PLACEMENT_3D('Cylinder Axis2P3D',#411,#412,#413) ;
#418=AXIS2_PLACEMENT_3D('Circle Axis2P3D',#416,#417,$) ;
#439=AXIS2_PLACEMENT_3D('Plane Axis2P3D',#436,#437,#438) ;
#464=AXIS2_PLACEMENT_3D('Plane Axis2P3D',#461,#462,#463) ;
#482=AXIS2_PLACEMENT_3D('Plane Axis2P3D',#479,#480,#481) ;
#496=AXIS2_PLACEMENT_3D('Cylinder Axis2P3D',#493,#494,#495) ;
#507=AXIS2_PLACEMENT_3D('Circle Axis2P3D',#505,#506,$) ;
#527=AXIS2_PLACEMENT_3D('Circle Axis2P3D',#525,#526,$) ;
#541=AXIS2_PLACEMENT_3D('Cylinder Axis2P3D',#538,#539,#540) ;
#552=AXIS2_PLACEMENT_3D('Circle Axis2P3D',#550,#551,$) ;
#572=AXIS2_PLACEMENT_3D('Circle Axis2P3D',#570,#571,$) ;
#586=AXIS2_PLACEMENT_3D('Plane Axis2P3D',#583,#584,#585) ;
#17=CARTESIAN_POINT(' ',(0.,0.,0.)) ;
#31=CARTESIAN_POINT('Axis2P3D Location',(6.3,11.8,6.915)) ;
#36=CARTESIAN_POINT('Line Origine',(5.3,11.8,6.915)) ;
#40=CARTESIAN_POINT('Vertex',(5.3,11.8,7.8)) ;
#42=CARTESIAN_POINT('Vertex',(5.3,11.8,7.03)) ;
#45=CARTESIAN_POINT('Axis2P3D Location',(6.3,11.8,7.8)) ;
#49=CARTESIAN_POINT('Vertex',(7.3,11.8,7.8)) ;
#52=CARTESIAN_POINT('Line Origine',(7.3,11.8,6.915)) ;
#56=CARTESIAN_POINT('Vertex',(7.3,11.8,7.03)) ;
#59=CARTESIAN_POINT('Axis2P3D Location',(6.3,11.8,7.03)) ;
#79=CARTESIAN_POINT('Axis2P3D Location',(6.3,11.8,7.03)) ;
#84=CARTESIAN_POINT('Axis2P3D Location',(6.3,11.8,7.03)) ;
#88=CARTESIAN_POINT('Vertex',(6.3,11.8,6.03)) ;
#91=CARTESIAN_POINT('Axis2P3D Location',(6.3,11.8,7.03)) ;
#103=CARTESIAN_POINT('Axis2P3D Location',(5.3,11.8,7.8)) ;
#108=CARTESIAN_POINT('Line Origine',(5.3,8.8,7.03)) ;
#112=CARTESIAN_POINT('Vertex',(5.3,5.8,7.03)) ;
#115=CARTESIAN_POINT('Line Origine',(5.3,5.8,7.415)) ;
#119=CARTESIAN_POINT('Vertex',(5.3,5.8,7.8)) ;
#122=CARTESIAN_POINT('Line Origine',(5.3,7.3,7.8)) ;
#126=CARTESIAN_POINT('Vertex',(5.3,8.8,7.8)) ;
#129=CARTESIAN_POINT('Line Origine',(5.3,10.3,7.8)) ;
#143=CARTESIAN_POINT('Axis2P3D Location',(6.3,8.8,7.03)) ;
#148=CARTESIAN_POINT('Axis2P3D Location',(6.3,5.8,7.03)) ;
#152=CARTESIAN_POINT('Vertex',(6.3,5.8,6.03)) ;
#155=CARTESIAN_POINT('Line Origine',(7.3,8.8,7.03)) ;
#159=CARTESIAN_POINT('Vertex',(7.3,5.8,7.03)) ;
#162=CARTESIAN_POINT('Axis2P3D Location',(6.3,5.8,7.03)) ;
#177=CARTESIAN_POINT('Axis2P3D Location',(6.3,5.5,7.8)) ;
#182=CARTESIAN_POINT('Line Origine',(7.3,10.3,7.8)) ;
#186=CARTESIAN_POINT('Vertex',(7.3,8.8,7.8)) ;
#189=CARTESIAN_POINT('Line Origine',(6.3,8.8,7.8)) ;
#202=CARTESIAN_POINT('Axis2P3D Location',(7.3,5.8,7.8)) ;
#207=CARTESIAN_POINT('Line Origine',(7.3,7.3,7.8)) ;
#211=CARTESIAN_POINT('Vertex',(7.3,5.8,7.8)) ;
#214=CARTESIAN_POINT('Line Origine',(7.3,5.8,7.415)) ;
#228=CARTESIAN_POINT('Axis2P3D Location',(6.3,5.8,7.03)) ;
#233=CARTESIAN_POINT('Axis2P3D Location',(6.3,5.8,7.03)) ;
#245=CARTESIAN_POINT('Axis2P3D Location',(6.3,5.8,6.915)) ;
#250=CARTESIAN_POINT('Axis2P3D Location',(6.3,5.8,7.8)) ;
#263=CARTESIAN_POINT('Axis2P3D Location',(12.6,5.5,0.)) ;
#268=CARTESIAN_POINT('Line Origine',(12.6,4.4,7.8)) ;
#272=CARTESIAN_POINT('Vertex',(12.6,0.,7.8)) ;
#274=CARTESIAN_POINT('Vertex',(12.6,8.8,7.8)) ;
#277=CARTESIAN_POINT('Line Origine',(12.6,8.25939174829,18.1154199453)) ;
#281=CARTESIAN_POINT('Vertex',(12.6,7.71878349659,28.4308398906)) ;
#284=CARTESIAN_POINT('Axis2P3D Location',(12.6,5.2222096597,28.3)) ;
#288=CARTESIAN_POINT('Vertex',(12.6,5.2222096597,30.8)) ;
#291=CARTESIAN_POINT('Line Origine',(12.6,2.61110482985,30.8)) ;
#295=CARTESIAN_POINT('Vertex',(12.6,0.,30.8)) ;
#298=CARTESIAN_POINT('Line Origine',(12.6,0.,19.3)) ;
#312=CARTESIAN_POINT('Line Origine',(9.95,8.8,7.8)) ;
#317=CARTESIAN_POINT('Line Origine',(6.3,0.,7.8)) ;
#321=CARTESIAN_POINT('Vertex',(0.,0.,7.8)) ;
#324=CARTESIAN_POINT('Line Origine',(0.,4.4,7.8)) ;
#328=CARTESIAN_POINT('Vertex',(0.,8.8,7.8)) ;
#331=CARTESIAN_POINT('Line Origine',(2.65,8.8,7.8)) ;
#346=CARTESIAN_POINT('Axis2P3D Location',(10.,5.5,7.8)) ;
#350=CARTESIAN_POINT('Vertex',(8.25,5.5,7.8)) ;
#352=CARTESIAN_POINT('Vertex',(11.75,5.5,7.8)) ;
#355=CARTESIAN_POINT('Axis2P3D Location',(10.,5.5,7.8)) ;
#364=CARTESIAN_POINT('Axis2P3D Location',(2.6,5.5,7.8)) ;
#368=CARTESIAN_POINT('Vertex',(0.85,5.5,7.8)) ;
#370=CARTESIAN_POINT('Vertex',(4.35,5.5,7.8)) ;
#373=CARTESIAN_POINT('Axis2P3D Location',(2.6,5.5,7.8)) ;
#384=CARTESIAN_POINT('Axis2P3D Location',(6.3,8.8,7.8)) ;
#389=CARTESIAN_POINT('Line Origine',(0.,8.25939174829,18.1154199453)) ;
#393=CARTESIAN_POINT('Vertex',(0.,7.71878349659,28.4308398906)) ;
#396=CARTESIAN_POINT('Line Origine',(6.3,7.71878349659,28.4308398906)) ;
#411=CARTESIAN_POINT('Axis2P3D Location',(6.3,5.2222096597,28.3)) ;
#416=CARTESIAN_POINT('Axis2P3D Location',(0.,5.2222096597,28.3)) ;
#420=CARTESIAN_POINT('Vertex',(0.,5.2222096597,30.8)) ;
#423=CARTESIAN_POINT('Line Origine',(6.3,5.2222096597,30.8)) ;
#436=CARTESIAN_POINT('Axis2P3D Location',(6.3,0.,30.8)) ;
#441=CARTESIAN_POINT('Line Origine',(0.,2.61110482985,30.8)) ;
#445=CARTESIAN_POINT('Vertex',(0.,0.,30.8)) ;
#448=CARTESIAN_POINT('Line Origine',(6.3,0.,30.8)) ;
#461=CARTESIAN_POINT('Axis2P3D Location',(6.3,0.,7.8)) ;
#466=CARTESIAN_POINT('Line Origine',(0.,0.,19.3)) ;
#479=CARTESIAN_POINT('Axis2P3D Location',(0.,5.5,0.)) ;
#493=CARTESIAN_POINT('Axis2P3D Location',(10.,5.5,3.9)) ;
#498=CARTESIAN_POINT('Line Origine',(11.75,5.5,3.9)) ;
#502=CARTESIAN_POINT('Vertex',(11.75,5.5,0.)) ;
#505=CARTESIAN_POINT('Axis2P3D Location',(10.,5.5,0.)) ;
#509=CARTESIAN_POINT('Vertex',(8.25,5.5,0.)) ;
#512=CARTESIAN_POINT('Line Origine',(8.25,5.5,3.9)) ;
#525=CARTESIAN_POINT('Axis2P3D Location',(10.,5.5,0.)) ;
#538=CARTESIAN_POINT('Axis2P3D Location',(2.6,5.5,3.9)) ;
#543=CARTESIAN_POINT('Line Origine',(4.35,5.5,3.9)) ;
#547=CARTESIAN_POINT('Vertex',(4.35,5.5,0.)) ;
#550=CARTESIAN_POINT('Axis2P3D Location',(2.6,5.5,0.)) ;
#554=CARTESIAN_POINT('Vertex',(0.85,5.5,0.)) ;
#557=CARTESIAN_POINT('Line Origine',(0.85,5.5,3.9)) ;
#570=CARTESIAN_POINT('Axis2P3D Location',(2.6,5.5,0.)) ;
#583=CARTESIAN_POINT('Axis2P3D Location',(6.3,5.5,0.)) ;
#32=DIRECTION('Axis2P3D Direction',(0.,0.,-1.)) ;
#33=DIRECTION('Axis2P3D XDirection',(-1.,-1.22464679915E-16,0.)) ;
#37=DIRECTION('Vector Direction',(0.,0.,-1.)) ;
#46=DIRECTION('Axis2P3D Direction',(0.,0.,-1.)) ;
#53=DIRECTION('Vector Direction',(0.,0.,-1.)) ;
#60=DIRECTION('Axis2P3D Direction',(0.,0.,-1.)) ;
#80=DIRECTION('Axis2P3D Direction',(0.,0.,-1.)) ;
#81=DIRECTION('Axis2P3D XDirection',(0.,-1.,0.)) ;
#85=DIRECTION('Axis2P3D Direction',(7.8859849469E-16,-1.,0.)) ;
#92=DIRECTION('Axis2P3D Direction',(-4.66973964755E-16,1.,0.)) ;
#104=DIRECTION('Axis2P3D Direction',(1.,0.,0.)) ;
#105=DIRECTION('Axis2P3D XDirection',(0.,-1.,0.)) ;
#109=DIRECTION('Vector Direction',(0.,-1.,0.)) ;
#116=DIRECTION('Vector Direction',(0.,0.,-1.)) ;
#123=DIRECTION('Vector Direction',(0.,-1.,0.)) ;
#130=DIRECTION('Vector Direction',(0.,-1.,0.)) ;
#144=DIRECTION('Axis2P3D Direction',(0.,-1.,0.)) ;
#145=DIRECTION('Axis2P3D XDirection',(-1.,0.,0.)) ;
#149=DIRECTION('Axis2P3D Direction',(0.,-1.,0.)) ;
#156=DIRECTION('Vector Direction',(0.,-1.,0.)) ;
#163=DIRECTION('Axis2P3D Direction',(0.,-1.,0.)) ;
#178=DIRECTION('Axis2P3D Direction',(0.,0.,1.)) ;
#179=DIRECTION('Axis2P3D XDirection',(1.,0.,0.)) ;
#183=DIRECTION('Vector Direction',(0.,1.,0.)) ;
#190=DIRECTION('Vector Direction',(1.,0.,0.)) ;
#203=DIRECTION('Axis2P3D Direction',(-1.,0.,0.)) ;
#204=DIRECTION('Axis2P3D XDirection',(0.,1.,0.)) ;
#208=DIRECTION('Vector Direction',(0.,1.,0.)) ;
#215=DIRECTION('Vector Direction',(0.,0.,-1.)) ;
#229=DIRECTION('Axis2P3D Direction',(0.,0.,-1.)) ;
#230=DIRECTION('Axis2P3D XDirection',(0.,1.,0.)) ;
#234=DIRECTION('Axis2P3D Direction',(0.,0.,-1.)) ;
#246=DIRECTION('Axis2P3D Direction',(0.,0.,-1.)) ;
#247=DIRECTION('Axis2P3D XDirection',(1.,0.,0.)) ;
#251=DIRECTION('Axis2P3D Direction',(0.,0.,-1.)) ;
#264=DIRECTION('Axis2P3D Direction',(1.,0.,0.)) ;
#265=DIRECTION('Axis2P3D XDirection',(0.,1.,0.)) ;
#269=DIRECTION('Vector Direction',(0.,1.,0.)) ;
#278=DIRECTION('Vector Direction',(0.,-0.0523359562429,0.998629534755)) ;
#285=DIRECTION('Axis2P3D Direction',(1.,0.,0.)) ;
#292=DIRECTION('Vector Direction',(0.,1.,0.)) ;
#299=DIRECTION('Vector Direction',(0.,0.,1.)) ;
#313=DIRECTION('Vector Direction',(1.,0.,0.)) ;
#318=DIRECTION('Vector Direction',(1.,0.,0.)) ;
#325=DIRECTION('Vector Direction',(0.,1.,0.)) ;
#332=DIRECTION('Vector Direction',(1.,0.,0.)) ;
#347=DIRECTION('Axis2P3D Direction',(0.,0.,1.)) ;
#356=DIRECTION('Axis2P3D Direction',(0.,0.,1.)) ;
#365=DIRECTION('Axis2P3D Direction',(0.,0.,1.)) ;
#374=DIRECTION('Axis2P3D Direction',(0.,0.,1.)) ;
#385=DIRECTION('Axis2P3D Direction',(-0.,0.998629534755,0.0523359562429)) ;
#386=DIRECTION('Axis2P3D XDirection',(0.,-0.0523359562429,0.998629534755)) ;
#390=DIRECTION('Vector Direction',(0.,-0.0523359562429,0.998629534755)) ;
#397=DIRECTION('Vector Direction',(1.,0.,0.)) ;
#412=DIRECTION('Axis2P3D Direction',(1.,0.,0.)) ;
#413=DIRECTION('Axis2P3D XDirection',(0.,0.998629534755,0.0523359562429)) ;
#417=DIRECTION('Axis2P3D Direction',(1.,0.,0.)) ;
#424=DIRECTION('Vector Direction',(1.,0.,0.)) ;
#437=DIRECTION('Axis2P3D Direction',(0.,0.,-1.)) ;
#438=DIRECTION('Axis2P3D XDirection',(0.,1.,0.)) ;
#442=DIRECTION('Vector Direction',(0.,1.,0.)) ;
#449=DIRECTION('Vector Direction',(1.,0.,0.)) ;
#462=DIRECTION('Axis2P3D Direction',(0.,1.,0.)) ;
#463=DIRECTION('Axis2P3D XDirection',(0.,0.,1.)) ;
#467=DIRECTION('Vector Direction',(0.,0.,1.)) ;
#480=DIRECTION('Axis2P3D Direction',(1.,0.,0.)) ;
#481=DIRECTION('Axis2P3D XDirection',(0.,1.,0.)) ;
#494=DIRECTION('Axis2P3D Direction',(0.,0.,1.)) ;
#495=DIRECTION('Axis2P3D XDirection',(1.,0.,0.)) ;
#499=DIRECTION('Vector Direction',(0.,0.,1.)) ;
#506=DIRECTION('Axis2P3D Direction',(0.,0.,1.)) ;
#513=DIRECTION('Vector Direction',(0.,0.,1.)) ;
#526=DIRECTION('Axis2P3D Direction',(0.,0.,1.)) ;
#539=DIRECTION('Axis2P3D Direction',(0.,0.,1.)) ;
#540=DIRECTION('Axis2P3D XDirection',(1.,0.,0.)) ;
#544=DIRECTION('Vector Direction',(0.,0.,1.)) ;
#551=DIRECTION('Axis2P3D Direction',(0.,0.,1.)) ;
#558=DIRECTION('Vector Direction',(0.,0.,1.)) ;
#571=DIRECTION('Axis2P3D Direction',(0.,0.,1.)) ;
#584=DIRECTION('Axis2P3D Direction',(0.,0.,1.)) ;
#585=DIRECTION('Axis2P3D XDirection',(1.,0.,0.)) ;
#8=PRODUCT_RELATED_PRODUCT_CATEGORY('part',$,(#5)) ;
#7=PRODUCT_CATEGORY('part','specification') ;
#29=STYLED_ITEM(' ',(#28),#21) ;
#28=PRESENTATION_STYLE_ASSIGNMENT((#27)) ;
#77=PRESENTATION_STYLE_ASSIGNMENT((#76)) ;
#27=SURFACE_STYLE_USAGE(.BOTH.,#26) ;
#76=SURFACE_STYLE_USAGE(.BOTH.,#75) ;
#26=SURFACE_SIDE_STYLE(' ',(#25)) ;
#75=SURFACE_SIDE_STYLE(' ',(#74)) ;
#25=SURFACE_STYLE_FILL_AREA(#24) ;
#74=SURFACE_STYLE_FILL_AREA(#73) ;
#24=FILL_AREA_STYLE(' ',(#23)) ;
#73=FILL_AREA_STYLE(' ',(#72)) ;
#23=FILL_AREA_STYLE_COLOUR(' ',#22) ;
#72=FILL_AREA_STYLE_COLOUR(' ',#71) ;
#38=VECTOR('Line Direction',#37,1.) ;
#54=VECTOR('Line Direction',#53,1.) ;
#110=VECTOR('Line Direction',#109,1.) ;
#117=VECTOR('Line Direction',#116,1.) ;
#124=VECTOR('Line Direction',#123,1.) ;
#131=VECTOR('Line Direction',#130,1.) ;
#157=VECTOR('Line Direction',#156,1.) ;
#184=VECTOR('Line Direction',#183,1.) ;
#191=VECTOR('Line Direction',#190,1.) ;
#209=VECTOR('Line Direction',#208,1.) ;
#216=VECTOR('Line Direction',#215,1.) ;
#270=VECTOR('Line Direction',#269,1.) ;
#279=VECTOR('Line Direction',#278,1.) ;
#293=VECTOR('Line Direction',#292,1.) ;
#300=VECTOR('Line Direction',#299,1.) ;
#314=VECTOR('Line Direction',#313,1.) ;
#319=VECTOR('Line Direction',#318,1.) ;
#326=VECTOR('Line Direction',#325,1.) ;
#333=VECTOR('Line Direction',#332,1.) ;
#391=VECTOR('Line Direction',#390,1.) ;
#398=VECTOR('Line Direction',#397,1.) ;
#425=VECTOR('Line Direction',#424,1.) ;
#443=VECTOR('Line Direction',#442,1.) ;
#450=VECTOR('Line Direction',#449,1.) ;
#468=VECTOR('Line Direction',#467,1.) ;
#500=VECTOR('Line Direction',#499,1.) ;
#514=VECTOR('Line Direction',#513,1.) ;
#545=VECTOR('Line Direction',#544,1.) ;
#559=VECTOR('Line Direction',#558,1.) ;
#15=UNCERTAINTY_MEASURE_WITH_UNIT(LENGTH_MEASURE(0.005),#12,'distance_accuracy_value','CONFUSED CURVE UNCERTAINTY') ;
#601=SHAPE_REPRESENTATION_RELATIONSHIP(' ',' ',#19,#600) ;
#65=ORIENTED_EDGE('',*,*,#44,.F.) ;
#66=ORIENTED_EDGE('',*,*,#51,.T.) ;
#67=ORIENTED_EDGE('',*,*,#58,.T.) ;
#68=ORIENTED_EDGE('',*,*,#63,.F.) ;
#97=ORIENTED_EDGE('',*,*,#90,.T.) ;
#98=ORIENTED_EDGE('',*,*,#63,.T.) ;
#99=ORIENTED_EDGE('',*,*,#95,.F.) ;
#135=ORIENTED_EDGE('',*,*,#114,.F.) ;
#136=ORIENTED_EDGE('',*,*,#121,.F.) ;
#137=ORIENTED_EDGE('',*,*,#128,.T.) ;
#138=ORIENTED_EDGE('',*,*,#133,.T.) ;
#139=ORIENTED_EDGE('',*,*,#44,.T.) ;
#168=ORIENTED_EDGE('',*,*,#154,.T.) ;
#169=ORIENTED_EDGE('',*,*,#114,.T.) ;
#170=ORIENTED_EDGE('',*,*,#90,.F.) ;
#171=ORIENTED_EDGE('',*,*,#95,.T.) ;
#172=ORIENTED_EDGE('',*,*,#161,.T.) ;
#173=ORIENTED_EDGE('',*,*,#166,.F.) ;
#195=ORIENTED_EDGE('',*,*,#188,.F.) ;
#196=ORIENTED_EDGE('',*,*,#51,.F.) ;
#197=ORIENTED_EDGE('',*,*,#133,.F.) ;
#198=ORIENTED_EDGE('',*,*,#193,.T.) ;
#220=ORIENTED_EDGE('',*,*,#161,.F.) ;
#221=ORIENTED_EDGE('',*,*,#58,.F.) ;
#222=ORIENTED_EDGE('',*,*,#188,.T.) ;
#223=ORIENTED_EDGE('',*,*,#213,.T.) ;
#224=ORIENTED_EDGE('',*,*,#218,.T.) ;
#239=ORIENTED_EDGE('',*,*,#166,.T.) ;
#240=ORIENTED_EDGE('',*,*,#237,.T.) ;
#241=ORIENTED_EDGE('',*,*,#154,.F.) ;
#256=ORIENTED_EDGE('',*,*,#218,.F.) ;
#257=ORIENTED_EDGE('',*,*,#254,.T.) ;
#258=ORIENTED_EDGE('',*,*,#121,.T.) ;
#259=ORIENTED_EDGE('',*,*,#237,.F.) ;
#304=ORIENTED_EDGE('',*,*,#276,.T.) ;
#305=ORIENTED_EDGE('',*,*,#283,.T.) ;
#306=ORIENTED_EDGE('',*,*,#290,.T.) ;
#307=ORIENTED_EDGE('',*,*,#297,.T.) ;
#308=ORIENTED_EDGE('',*,*,#302,.T.) ;
#337=ORIENTED_EDGE('',*,*,#128,.F.) ;
#338=ORIENTED_EDGE('',*,*,#254,.F.) ;
#339=ORIENTED_EDGE('',*,*,#213,.F.) ;
#340=ORIENTED_EDGE('',*,*,#316,.T.) ;
#341=ORIENTED_EDGE('',*,*,#276,.F.) ;
#342=ORIENTED_EDGE('',*,*,#323,.F.) ;
#343=ORIENTED_EDGE('',*,*,#330,.T.) ;
#344=ORIENTED_EDGE('',*,*,#335,.T.) ;
#361=ORIENTED_EDGE('',*,*,#354,.T.) ;
#362=ORIENTED_EDGE('',*,*,#359,.T.) ;
#379=ORIENTED_EDGE('',*,*,#372,.T.) ;
#380=ORIENTED_EDGE('',*,*,#377,.T.) ;
#402=ORIENTED_EDGE('',*,*,#316,.F.) ;
#403=ORIENTED_EDGE('',*,*,#193,.F.) ;
#404=ORIENTED_EDGE('',*,*,#335,.F.) ;
#405=ORIENTED_EDGE('',*,*,#395,.T.) ;
#406=ORIENTED_EDGE('',*,*,#400,.T.) ;
#407=ORIENTED_EDGE('',*,*,#283,.F.) ;
#429=ORIENTED_EDGE('',*,*,#400,.F.) ;
#430=ORIENTED_EDGE('',*,*,#422,.T.) ;
#431=ORIENTED_EDGE('',*,*,#427,.T.) ;
#432=ORIENTED_EDGE('',*,*,#290,.F.) ;
#454=ORIENTED_EDGE('',*,*,#427,.F.) ;
#455=ORIENTED_EDGE('',*,*,#447,.T.) ;
#456=ORIENTED_EDGE('',*,*,#452,.T.) ;
#457=ORIENTED_EDGE('',*,*,#297,.F.) ;
#472=ORIENTED_EDGE('',*,*,#452,.F.) ;
#473=ORIENTED_EDGE('',*,*,#470,.T.) ;
#474=ORIENTED_EDGE('',*,*,#323,.T.) ;
#475=ORIENTED_EDGE('',*,*,#302,.F.) ;
#485=ORIENTED_EDGE('',*,*,#470,.F.) ;
#486=ORIENTED_EDGE('',*,*,#447,.F.) ;
#487=ORIENTED_EDGE('',*,*,#422,.F.) ;
#488=ORIENTED_EDGE('',*,*,#395,.F.) ;
#489=ORIENTED_EDGE('',*,*,#330,.F.) ;
#518=ORIENTED_EDGE('',*,*,#504,.F.) ;
#519=ORIENTED_EDGE('',*,*,#511,.T.) ;
#520=ORIENTED_EDGE('',*,*,#516,.T.) ;
#521=ORIENTED_EDGE('',*,*,#359,.F.) ;
#531=ORIENTED_EDGE('',*,*,#516,.F.) ;
#532=ORIENTED_EDGE('',*,*,#529,.T.) ;
#533=ORIENTED_EDGE('',*,*,#504,.T.) ;
#534=ORIENTED_EDGE('',*,*,#354,.F.) ;
#563=ORIENTED_EDGE('',*,*,#549,.F.) ;
#564=ORIENTED_EDGE('',*,*,#556,.T.) ;
#565=ORIENTED_EDGE('',*,*,#561,.T.) ;
#566=ORIENTED_EDGE('',*,*,#377,.F.) ;
#576=ORIENTED_EDGE('',*,*,#561,.F.) ;
#577=ORIENTED_EDGE('',*,*,#574,.T.) ;
#578=ORIENTED_EDGE('',*,*,#549,.T.) ;
#579=ORIENTED_EDGE('',*,*,#372,.F.) ;
#589=ORIENTED_EDGE('',*,*,#529,.F.) ;
#590=ORIENTED_EDGE('',*,*,#511,.F.) ;
#595=ORIENTED_EDGE('',*,*,#574,.F.) ;
#596=ORIENTED_EDGE('',*,*,#556,.F.) ;
#363=FACE_BOUND('',#360,.T.) ;
#381=FACE_BOUND('',#378,.T.) ;
#30=CLOSED_SHELL('Closed Shell',(#70,#101,#141,#175,#200,#226,#243,#261,#310,#382,#409,#434,#459,#477,#491,#523,#536,#568,#581,#592,#598)) ;
#600=ADVANCED_BREP_SHAPE_REPRESENTATION('NONE',(#21),#16) ;
#70=ADVANCED_FACE('Modul',(#69),#35,.T.) ;
#101=ADVANCED_FACE('Modul',(#100),#83,.T.) ;
#141=ADVANCED_FACE('Modul',(#140),#107,.F.) ;
#175=ADVANCED_FACE('Modul',(#174),#147,.T.) ;
#200=ADVANCED_FACE('Modul',(#199),#181,.T.) ;
#226=ADVANCED_FACE('Modul',(#225),#206,.F.) ;
#243=ADVANCED_FACE('Modul',(#242),#232,.T.) ;
#261=ADVANCED_FACE('Modul',(#260),#249,.T.) ;
#310=ADVANCED_FACE('Modul',(#309),#267,.T.) ;
#382=ADVANCED_FACE('Modul',(#345,#363,#381),#181,.F.) ;
#409=ADVANCED_FACE('Modul',(#408),#388,.T.) ;
#434=ADVANCED_FACE('Modul',(#433),#415,.T.) ;
#459=ADVANCED_FACE('Modul',(#458),#440,.F.) ;
#477=ADVANCED_FACE('Modul',(#476),#465,.F.) ;
#491=ADVANCED_FACE('Modul',(#490),#483,.F.) ;
#523=ADVANCED_FACE('Modul',(#522),#497,.T.) ;
#536=ADVANCED_FACE('Modul',(#535),#497,.T.) ;
#568=ADVANCED_FACE('Modul',(#567),#542,.T.) ;
#581=ADVANCED_FACE('Modul',(#580),#542,.T.) ;
#592=ADVANCED_FACE('Modul',(#591),#587,.F.) ;
#598=ADVANCED_FACE('Modul',(#597),#587,.F.) ;
#4=APPLICATION_PROTOCOL_DEFINITION('international standard','automotive_design',2001,#1) ;
#21=MANIFOLD_SOLID_BREP('Modul',#30) ;
#48=CIRCLE('generated circle',#47,1.) ;
#62=CIRCLE('generated circle',#61,1.) ;
#87=CIRCLE('generated circle',#86,1.) ;
#94=CIRCLE('generated circle',#93,1.) ;
#151=CIRCLE('generated circle',#150,1.) ;
#165=CIRCLE('generated circle',#164,1.) ;
#236=CIRCLE('generated circle',#235,1.) ;
#253=CIRCLE('generated circle',#252,1.) ;
#287=CIRCLE('generated circle',#286,2.5) ;
#349=CIRCLE('generated circle',#348,1.75) ;
#358=CIRCLE('generated circle',#357,1.75) ;
#367=CIRCLE('generated circle',#366,1.75) ;
#376=CIRCLE('generated circle',#375,1.75) ;
#419=CIRCLE('generated circle',#418,2.5) ;
#508=CIRCLE('generated circle',#507,1.75) ;
#528=CIRCLE('generated circle',#527,1.75) ;
#553=CIRCLE('generated circle',#552,1.75) ;
#573=CIRCLE('generated circle',#572,1.75) ;
#22=COLOUR_RGB('Colour',0.823529411765,0.823529411765,1.) ;
#71=COLOUR_RGB('Colour',0.262745098039,0.235294117647,0.258823529412) ;
#78=OVER_RIDING_STYLED_ITEM(' ',(#77),#70,#29) ;
#102=OVER_RIDING_STYLED_ITEM(' ',(#77),#101,#29) ;
#142=OVER_RIDING_STYLED_ITEM(' ',(#77),#141,#29) ;
#176=OVER_RIDING_STYLED_ITEM(' ',(#77),#175,#29) ;
#201=OVER_RIDING_STYLED_ITEM(' ',(#77),#200,#29) ;
#227=OVER_RIDING_STYLED_ITEM(' ',(#77),#226,#29) ;
#244=OVER_RIDING_STYLED_ITEM(' ',(#77),#243,#29) ;
#262=OVER_RIDING_STYLED_ITEM(' ',(#77),#261,#29) ;
#311=OVER_RIDING_STYLED_ITEM(' ',(#77),#310,#29) ;
#383=OVER_RIDING_STYLED_ITEM(' ',(#77),#382,#29) ;
#410=OVER_RIDING_STYLED_ITEM(' ',(#77),#409,#29) ;
#435=OVER_RIDING_STYLED_ITEM(' ',(#77),#434,#29) ;
#460=OVER_RIDING_STYLED_ITEM(' ',(#77),#459,#29) ;
#478=OVER_RIDING_STYLED_ITEM(' ',(#77),#477,#29) ;
#492=OVER_RIDING_STYLED_ITEM(' ',(#77),#491,#29) ;
#524=OVER_RIDING_STYLED_ITEM(' ',(#77),#523,#29) ;
#537=OVER_RIDING_STYLED_ITEM(' ',(#77),#536,#29) ;
#569=OVER_RIDING_STYLED_ITEM(' ',(#77),#568,#29) ;
#582=OVER_RIDING_STYLED_ITEM(' ',(#77),#581,#29) ;
#593=OVER_RIDING_STYLED_ITEM(' ',(#77),#592,#29) ;
#599=OVER_RIDING_STYLED_ITEM(' ',(#77),#598,#29) ;
#35=CYLINDRICAL_SURFACE('generated cylinder',#34,1.) ;
#147=CYLINDRICAL_SURFACE('generated cylinder',#146,1.) ;
#249=CYLINDRICAL_SURFACE('generated cylinder',#248,1.) ;
#415=CYLINDRICAL_SURFACE('generated cylinder',#414,2.5) ;
#497=CYLINDRICAL_SURFACE('generated cylinder',#496,1.75) ;
#542=CYLINDRICAL_SURFACE('generated cylinder',#541,1.75) ;
#44=EDGE_CURVE('',#41,#43,#39,.T.) ;
#51=EDGE_CURVE('',#41,#50,#48,.T.) ;
#58=EDGE_CURVE('',#50,#57,#55,.T.) ;
#63=EDGE_CURVE('',#43,#57,#62,.T.) ;
#90=EDGE_CURVE('',#89,#43,#87,.F.) ;
#95=EDGE_CURVE('',#89,#57,#94,.F.) ;
#114=EDGE_CURVE('',#113,#43,#111,.F.) ;
#121=EDGE_CURVE('',#120,#113,#118,.T.) ;
#128=EDGE_CURVE('',#120,#127,#125,.F.) ;
#133=EDGE_CURVE('',#127,#41,#132,.F.) ;
#154=EDGE_CURVE('',#153,#113,#151,.F.) ;
#161=EDGE_CURVE('',#57,#160,#158,.T.) ;
#166=EDGE_CURVE('',#153,#160,#165,.T.) ;
#188=EDGE_CURVE('',#50,#187,#185,.F.) ;
#193=EDGE_CURVE('',#127,#187,#192,.T.) ;
#213=EDGE_CURVE('',#187,#212,#210,.F.) ;
#218=EDGE_CURVE('',#212,#160,#217,.T.) ;
#237=EDGE_CURVE('',#160,#113,#236,.T.) ;
#254=EDGE_CURVE('',#212,#120,#253,.T.) ;
#276=EDGE_CURVE('',#273,#275,#271,.T.) ;
#283=EDGE_CURVE('',#275,#282,#280,.T.) ;
#290=EDGE_CURVE('',#282,#289,#287,.T.) ;
#297=EDGE_CURVE('',#289,#296,#294,.F.) ;
#302=EDGE_CURVE('',#296,#273,#301,.F.) ;
#316=EDGE_CURVE('',#187,#275,#315,.T.) ;
#323=EDGE_CURVE('',#322,#273,#320,.T.) ;
#330=EDGE_CURVE('',#322,#329,#327,.T.) ;
#335=EDGE_CURVE('',#329,#127,#334,.T.) ;
#354=EDGE_CURVE('',#351,#353,#349,.T.) ;
#359=EDGE_CURVE('',#353,#351,#358,.T.) ;
#372=EDGE_CURVE('',#369,#371,#367,.T.) ;
#377=EDGE_CURVE('',#371,#369,#376,.T.) ;
#395=EDGE_CURVE('',#329,#394,#392,.T.) ;
#400=EDGE_CURVE('',#394,#282,#399,.T.) ;
#422=EDGE_CURVE('',#394,#421,#419,.T.) ;
#427=EDGE_CURVE('',#421,#289,#426,.T.) ;
#447=EDGE_CURVE('',#421,#446,#444,.F.) ;
#452=EDGE_CURVE('',#446,#296,#451,.T.) ;
#470=EDGE_CURVE('',#446,#322,#469,.F.) ;
#504=EDGE_CURVE('',#503,#353,#501,.T.) ;
#511=EDGE_CURVE('',#503,#510,#508,.T.) ;
#516=EDGE_CURVE('',#510,#351,#515,.T.) ;
#529=EDGE_CURVE('',#510,#503,#528,.T.) ;
#549=EDGE_CURVE('',#548,#371,#546,.T.) ;
#556=EDGE_CURVE('',#548,#555,#553,.T.) ;
#561=EDGE_CURVE('',#555,#369,#560,.T.) ;
#574=EDGE_CURVE('',#555,#548,#573,.T.) ;
#64=EDGE_LOOP('',(#65,#66,#67,#68)) ;
#96=EDGE_LOOP('',(#97,#98,#99)) ;
#134=EDGE_LOOP('',(#135,#136,#137,#138,#139)) ;
#167=EDGE_LOOP('',(#168,#169,#170,#171,#172,#173)) ;
#194=EDGE_LOOP('',(#195,#196,#197,#198)) ;
#219=EDGE_LOOP('',(#220,#221,#222,#223,#224)) ;
#238=EDGE_LOOP('',(#239,#240,#241)) ;
#255=EDGE_LOOP('',(#256,#257,#258,#259)) ;
#303=EDGE_LOOP('',(#304,#305,#306,#307,#308)) ;
#336=EDGE_LOOP('',(#337,#338,#339,#340,#341,#342,#343,#344)) ;
#360=EDGE_LOOP('',(#361,#362)) ;
#378=EDGE_LOOP('',(#379,#380)) ;
#401=EDGE_LOOP('',(#402,#403,#404,#405,#406,#407)) ;
#428=EDGE_LOOP('',(#429,#430,#431,#432)) ;
#453=EDGE_LOOP('',(#454,#455,#456,#457)) ;
#471=EDGE_LOOP('',(#472,#473,#474,#475)) ;
#484=EDGE_LOOP('',(#485,#486,#487,#488,#489)) ;
#517=EDGE_LOOP('',(#518,#519,#520,#521)) ;
#530=EDGE_LOOP('',(#531,#532,#533,#534)) ;
#562=EDGE_LOOP('',(#563,#564,#565,#566)) ;
#575=EDGE_LOOP('',(#576,#577,#578,#579)) ;
#588=EDGE_LOOP('',(#589,#590)) ;
#594=EDGE_LOOP('',(#595,#596)) ;
#69=FACE_OUTER_BOUND('',#64,.T.) ;
#100=FACE_OUTER_BOUND('',#96,.T.) ;
#140=FACE_OUTER_BOUND('',#134,.T.) ;
#174=FACE_OUTER_BOUND('',#167,.T.) ;
#199=FACE_OUTER_BOUND('',#194,.T.) ;
#225=FACE_OUTER_BOUND('',#219,.T.) ;
#242=FACE_OUTER_BOUND('',#238,.T.) ;
#260=FACE_OUTER_BOUND('',#255,.T.) ;
#309=FACE_OUTER_BOUND('',#303,.T.) ;
#345=FACE_OUTER_BOUND('',#336,.T.) ;
#408=FACE_OUTER_BOUND('',#401,.T.) ;
#433=FACE_OUTER_BOUND('',#428,.T.) ;
#458=FACE_OUTER_BOUND('',#453,.T.) ;
#476=FACE_OUTER_BOUND('',#471,.T.) ;
#490=FACE_OUTER_BOUND('',#484,.T.) ;
#522=FACE_OUTER_BOUND('',#517,.T.) ;
#535=FACE_OUTER_BOUND('',#530,.T.) ;
#567=FACE_OUTER_BOUND('',#562,.T.) ;
#580=FACE_OUTER_BOUND('',#575,.T.) ;
#591=FACE_OUTER_BOUND('',#588,.T.) ;
#597=FACE_OUTER_BOUND('',#594,.T.) ;
#39=LINE('Line',#36,#38) ;
#55=LINE('Line',#52,#54) ;
#111=LINE('Line',#108,#110) ;
#118=LINE('Line',#115,#117) ;
#125=LINE('Line',#122,#124) ;
#132=LINE('Line',#129,#131) ;
#158=LINE('Line',#155,#157) ;
#185=LINE('Line',#182,#184) ;
#192=LINE('Line',#189,#191) ;
#210=LINE('Line',#207,#209) ;
#217=LINE('Line',#214,#216) ;
#271=LINE('Line',#268,#270) ;
#280=LINE('Line',#277,#279) ;
#294=LINE('Line',#291,#293) ;
#301=LINE('Line',#298,#300) ;
#315=LINE('Line',#312,#314) ;
#320=LINE('Line',#317,#319) ;
#327=LINE('Line',#324,#326) ;
#334=LINE('Line',#331,#333) ;
#392=LINE('Line',#389,#391) ;
#399=LINE('Line',#396,#398) ;
#426=LINE('Line',#423,#425) ;
#444=LINE('Line',#441,#443) ;
#451=LINE('Line',#448,#450) ;
#469=LINE('Line',#466,#468) ;
#501=LINE('Line',#498,#500) ;
#515=LINE('Line',#512,#514) ;
#546=LINE('Line',#543,#545) ;
#560=LINE('Line',#557,#559) ;
#107=PLANE('',#106) ;
#181=PLANE('',#180) ;
#206=PLANE('',#205) ;
#267=PLANE('',#266) ;
#388=PLANE('',#387) ;
#440=PLANE('',#439) ;
#465=PLANE('',#464) ;
#483=PLANE('',#482) ;
#587=PLANE('',#586) ;
#9=PRODUCT_CATEGORY_RELATIONSHIP(' ',' ',#7,#8) ;
#6=PRODUCT_DEFINITION_FORMATION_WITH_SPECIFIED_SOURCE('',' ',#5,.NOT_KNOWN.) ;
#20=SHAPE_DEFINITION_REPRESENTATION(#11,#19) ;
#83=SPHERICAL_SURFACE('',#82,1.) ;
#232=SPHERICAL_SURFACE('',#231,1.) ;
#41=VERTEX_POINT('',#40) ;
#43=VERTEX_POINT('',#42) ;
#50=VERTEX_POINT('',#49) ;
#57=VERTEX_POINT('',#56) ;
#89=VERTEX_POINT('',#88) ;
#113=VERTEX_POINT('',#112) ;
#120=VERTEX_POINT('',#119) ;
#127=VERTEX_POINT('',#126) ;
#153=VERTEX_POINT('',#152) ;
#160=VERTEX_POINT('',#159) ;
#187=VERTEX_POINT('',#186) ;
#212=VERTEX_POINT('',#211) ;
#273=VERTEX_POINT('',#272) ;
#275=VERTEX_POINT('',#274) ;
#282=VERTEX_POINT('',#281) ;
#289=VERTEX_POINT('',#288) ;
#296=VERTEX_POINT('',#295) ;
#322=VERTEX_POINT('',#321) ;
#329=VERTEX_POINT('',#328) ;
#351=VERTEX_POINT('',#350) ;
#353=VERTEX_POINT('',#352) ;
#369=VERTEX_POINT('',#368) ;
#371=VERTEX_POINT('',#370) ;
#394=VERTEX_POINT('',#393) ;
#421=VERTEX_POINT('',#420) ;
#446=VERTEX_POINT('',#445) ;
#503=VERTEX_POINT('',#502) ;
#510=VERTEX_POINT('',#509) ;
#548=VERTEX_POINT('',#547) ;
#555=VERTEX_POINT('',#554) ;
#12=(LENGTH_UNIT()NAMED_UNIT(*)SI_UNIT(.MILLI.,.METRE.)) ;
#13=(NAMED_UNIT(*)PLANE_ANGLE_UNIT()SI_UNIT($,.RADIAN.)) ;
#14=(NAMED_UNIT(*)SI_UNIT($,.STERADIAN.)SOLID_ANGLE_UNIT()) ;
#16=(GEOMETRIC_REPRESENTATION_CONTEXT(3)GLOBAL_UNCERTAINTY_ASSIGNED_CONTEXT((#15))GLOBAL_UNIT_ASSIGNED_CONTEXT((#12,#13,#14))REPRESENTATION_CONTEXT(' ',' ')) ;
ENDSEC;
END-ISO-10303-21;
