ISO-10303-21;
HEADER;
FILE_DESCRIPTION(('CATIA V5 STEP Exchange','CAx-IF Rec.Pracs.--- Model Styling and Organization---1.5--- 2016-08-15','CAx-IF Rec.Pracs.---Supplemental Geometry---1.0---2011-11-01','CAx-IF Rec.Pracs.--- Composite Materials ---1.1---2010-07-15'),'2;1');

FILE_NAME ('D1447661_0', '2025-09-22T05:43:43+00:00', ('none'), ('Weidmueller'), 'CATIA Version 5-6 Release 2024 SP4', 'CATIA V5 STEP AP214 v3', 'none');

FILE_SCHEMA(('AUTOMOTIVE_DESIGN { 1 0 10303 214 1 1 1 1 }'));

ENDSEC;
DATA;
#5=PRODUCT('DEK 5/6.5 PLUS','','<Q-CHECKER_SEAL> Q-Checker Version 2.14.8  \X2\000A\X0\CATIA-Version         : Catia V5 R20 SP5 Build Date 01-14-2011.22.00\X2\000A\X0\Model size (in KByte) : 0\X2\000A\X0\Checking date         : 2012-03-27 08:44:42\X2\000A\X0\Checking profile      : ADMIN / Release_2D-3D [CATPart]\X2\000A\X0\Model assessment      : In Ordnung (IO)\X2\000A\X0\Total weight sum      : 0\X2\000A\X0\<CROSS_CHECK_SUM>\X2\000A\X0\  <CHKSUM_DATE> -1395770169 </CHKSUM_DATE>\X2\000A\X0\  <CHKSUM_ENTITIES> 485020038 </CHKSUM_ENTITIES>\X2\000A\X0\  <CHKSUM_PROFILE> 1594213346 </CHKSUM_PROFILE>\X2\000A\X0\  <CHKSUM_DIMENSION> -186917087 </CHKSUM_DIMENSION>\X2\000A\X0\  <CHKSUM_PROJINTERSEC> -896974048 </CHKSUM_PROJINTERSEC>\X2\000A\X0\  <CHKSUM_IDENTCRV> -896974048 </CHKSUM_IDENTCRV>\X2\000A\X0\  <CHKSUM_INFINITY> 138018827 </CHKSUM_INFINITY>\X2\000A\X0\</CROSS_CHECK_SUM>\X2\000A\X0\</Q-CHECKER_SEAL> \X2\000A\X0\ \X2\000A\X0\',(#2)) ;
#2=PRODUCT_CONTEXT(' ',#1,'mechanical') ;
#1=APPLICATION_CONTEXT('automotive design') ;
#10=PRODUCT_DEFINITION('',' ',#6,#3) ;
#3=PRODUCT_DEFINITION_CONTEXT('part definition',#1,' ') ;
#11=PRODUCT_DEFINITION_SHAPE(' ',' ',#10) ;
#450=MECHANICAL_DESIGN_GEOMETRIC_PRESENTATION_REPRESENTATION(' ',(#29),#16) ;
#19=SHAPE_REPRESENTATION(' ',(#18),#16) ;
#18=AXIS2_PLACEMENT_3D(' ',#17,$,$) ;
#34=AXIS2_PLACEMENT_3D('Plane Axis2P3D',#31,#32,#33) ;
#74=AXIS2_PLACEMENT_3D('Plane Axis2P3D',#71,#72,#73) ;
#105=AXIS2_PLACEMENT_3D('Plane Axis2P3D',#102,#103,#104) ;
#129=AXIS2_PLACEMENT_3D('Plane Axis2P3D',#126,#127,#128) ;
#221=AXIS2_PLACEMENT_3D('Plane Axis2P3D',#218,#219,#220) ;
#238=AXIS2_PLACEMENT_3D('Plane Axis2P3D',#235,#236,#237) ;
#250=AXIS2_PLACEMENT_3D('Plane Axis2P3D',#247,#248,#249) ;
#281=AXIS2_PLACEMENT_3D('Plane Axis2P3D',#278,#279,#280) ;
#305=AXIS2_PLACEMENT_3D('Plane Axis2P3D',#302,#303,#304) ;
#329=AXIS2_PLACEMENT_3D('Plane Axis2P3D',#326,#327,#328) ;
#346=AXIS2_PLACEMENT_3D('Plane Axis2P3D',#343,#344,#345) ;
#396=AXIS2_PLACEMENT_3D('Plane Axis2P3D',#393,#394,#395) ;
#432=AXIS2_PLACEMENT_3D('Plane Axis2P3D',#429,#430,#431) ;
#17=CARTESIAN_POINT(' ',(0.,0.,0.)) ;
#31=CARTESIAN_POINT('Axis2P3D Location',(3.1,1.01989478546,3.86421472598E-09)) ;
#36=CARTESIAN_POINT('Line Origine',(3.1,1.01989478546,3.86421472598E-09)) ;
#40=CARTESIAN_POINT('Vertex',(1.17499999925,1.01989478546,3.86421460811E-09)) ;
#42=CARTESIAN_POINT('Vertex',(5.02500000075,1.01989478546,3.86421484385E-09)) ;
#45=CARTESIAN_POINT('Line Origine',(1.17499999925,1.23060898631,0.786396107304)) ;
#49=CARTESIAN_POINT('Vertex',(1.17499999925,1.44132318716,1.57279221074)) ;
#52=CARTESIAN_POINT('Line Origine',(3.1,1.44132318716,1.57279221074)) ;
#56=CARTESIAN_POINT('Vertex',(5.02500000075,1.44132318716,1.57279221074)) ;
#59=CARTESIAN_POINT('Line Origine',(5.02500000075,1.23060898631,0.786396107304)) ;
#71=CARTESIAN_POINT('Axis2P3D Location',(3.1,1.01989478546,3.86421472598E-09)) ;
#76=CARTESIAN_POINT('Line Origine',(3.1,0.600000000771,3.86421472598E-09)) ;
#80=CARTESIAN_POINT('Vertex',(1.17499999925,0.600000000771,3.86421460811E-09)) ;
#82=CARTESIAN_POINT('Vertex',(5.02500000075,0.600000000771,3.86421484385E-09)) ;
#85=CARTESIAN_POINT('Line Origine',(1.17499999925,0.809947393116,3.86421460811E-09)) ;
#90=CARTESIAN_POINT('Line Origine',(5.02500000075,0.809947393116,3.86421484385E-09)) ;
#102=CARTESIAN_POINT('Axis2P3D Location',(1.175,2.6,2.37279221)) ;
#107=CARTESIAN_POINT('Line Origine',(1.175,0.6,0.786396106275)) ;
#111=CARTESIAN_POINT('Vertex',(1.175,0.6,1.57279220925)) ;
#114=CARTESIAN_POINT('Line Origine',(1.175,1.02066159379,1.57279220925)) ;
#126=CARTESIAN_POINT('Axis2P3D Location',(3.1,0.,1.57279221)) ;
#131=CARTESIAN_POINT('Line Origine',(6.19999999963,2.59999999963,1.57279221)) ;
#135=CARTESIAN_POINT('Vertex',(6.19999999963,5.19999999925,1.57279221)) ;
#137=CARTESIAN_POINT('Vertex',(6.19999999963,-1.89820253845E-16,1.57279221)) ;
#140=CARTESIAN_POINT('Line Origine',(3.1,0.,1.57279221)) ;
#144=CARTESIAN_POINT('Vertex',(3.72529118664E-10,1.89820253845E-16,1.57279221)) ;
#147=CARTESIAN_POINT('Line Origine',(3.72529340709E-10,2.59999999963,1.57279221)) ;
#151=CARTESIAN_POINT('Vertex',(3.72529562753E-10,5.19999999925,1.57279221)) ;
#154=CARTESIAN_POINT('Line Origine',(3.1,5.19999999925,1.57279221)) ;
#165=CARTESIAN_POINT('Line Origine',(5.02500000075,1.02066159341,1.57279221)) ;
#169=CARTESIAN_POINT('Vertex',(5.025,0.6,1.57279220925)) ;
#172=CARTESIAN_POINT('Line Origine',(3.1,0.599999999627,1.57279221)) ;
#183=CARTESIAN_POINT('Line Origine',(3.1,4.59999999963,1.57279221)) ;
#187=CARTESIAN_POINT('Vertex',(1.175,4.6,1.57279220925)) ;
#189=CARTESIAN_POINT('Vertex',(5.025,4.6,1.57279220925)) ;
#192=CARTESIAN_POINT('Line Origine',(1.17499999925,4.17933840677,1.57279221)) ;
#196=CARTESIAN_POINT('Vertex',(1.17499999925,3.75867681284,1.57279221074)) ;
#199=CARTESIAN_POINT('Line Origine',(3.1,3.75867681392,1.57279221)) ;
#203=CARTESIAN_POINT('Vertex',(5.02500000075,3.75867681284,1.57279221074)) ;
#206=CARTESIAN_POINT('Line Origine',(5.02500000075,4.17933840677,1.57279221)) ;
#218=CARTESIAN_POINT('Axis2P3D Location',(5.025,2.6,2.37279221)) ;
#223=CARTESIAN_POINT('Line Origine',(5.025,0.6,0.786396106275)) ;
#235=CARTESIAN_POINT('Axis2P3D Location',(3.1,0.6,1.57279221)) ;
#247=CARTESIAN_POINT('Axis2P3D Location',(6.2,2.6,2.37279221)) ;
#252=CARTESIAN_POINT('Line Origine',(6.2,3.72529118664E-10,1.97279220963)) ;
#256=CARTESIAN_POINT('Vertex',(6.2,3.72529118664E-10,2.37279221)) ;
#259=CARTESIAN_POINT('Line Origine',(6.2,5.19999999963,1.97279220963)) ;
#263=CARTESIAN_POINT('Vertex',(6.2,5.19999999963,2.37279221)) ;
#266=CARTESIAN_POINT('Line Origine',(6.2,2.6,2.37279221)) ;
#278=CARTESIAN_POINT('Axis2P3D Location',(3.1,0.,2.37279221)) ;
#283=CARTESIAN_POINT('Line Origine',(3.1,0.,2.37279221)) ;
#287=CARTESIAN_POINT('Vertex',(-3.67370900984E-16,3.72529118664E-10,2.37279221)) ;
#290=CARTESIAN_POINT('Line Origine',(3.72529118664E-10,1.89820253845E-16,1.97279220963)) ;
#302=CARTESIAN_POINT('Axis2P3D Location',(-2.08166817117E-16,2.6,2.37279221)) ;
#307=CARTESIAN_POINT('Line Origine',(-2.08166817117E-16,2.6,2.37279221)) ;
#311=CARTESIAN_POINT('Vertex',(-4.89627332508E-17,5.19999999963,2.37279221)) ;
#314=CARTESIAN_POINT('Line Origine',(-2.4469797245E-17,5.19999999963,1.97279220963)) ;
#326=CARTESIAN_POINT('Axis2P3D Location',(3.1,5.2,1.57279221)) ;
#331=CARTESIAN_POINT('Line Origine',(3.1,5.2,2.37279221075)) ;
#343=CARTESIAN_POINT('Axis2P3D Location',(3.1,4.6,3.86421472598E-09)) ;
#348=CARTESIAN_POINT('Line Origine',(5.02500000075,4.6,0.786396106844)) ;
#352=CARTESIAN_POINT('Vertex',(5.02500000075,4.60000000077,3.86421484385E-09)) ;
#355=CARTESIAN_POINT('Line Origine',(3.1,4.6,3.86421472598E-09)) ;
#359=CARTESIAN_POINT('Vertex',(1.17499999925,4.60000000077,3.86421460811E-09)) ;
#362=CARTESIAN_POINT('Line Origine',(1.17499999925,4.6,0.786396106844)) ;
#374=CARTESIAN_POINT('Line Origine',(1.175,4.39005260766,3.29538352162E-09)) ;
#378=CARTESIAN_POINT('Vertex',(1.17499999925,4.18010521454,3.86421460811E-09)) ;
#381=CARTESIAN_POINT('Line Origine',(1.175,3.96939101387,0.786396106275)) ;
#393=CARTESIAN_POINT('Axis2P3D Location',(3.1,4.18010521454,3.86421472598E-09)) ;
#398=CARTESIAN_POINT('Line Origine',(5.02500000075,3.96939101369,0.786396107304)) ;
#402=CARTESIAN_POINT('Vertex',(5.02500000075,4.18010521454,3.86421484385E-09)) ;
#405=CARTESIAN_POINT('Line Origine',(3.1,4.18010521454,3.86421472598E-09)) ;
#417=CARTESIAN_POINT('Line Origine',(5.025,4.39005260766,3.29538352162E-09)) ;
#429=CARTESIAN_POINT('Axis2P3D Location',(3.1,0.,2.37279221)) ;
#32=DIRECTION('Axis2P3D Direction',(7.49939943261E-17,0.965925826289,-0.258819045103)) ;
#33=DIRECTION('Axis2P3D XDirection',(-4.32978028118E-17,0.258819045103,0.965925826289)) ;
#37=DIRECTION('Vector Direction',(1.,-1.1534784667E-16,6.12323400273E-17)) ;
#46=DIRECTION('Vector Direction',(0.,0.258819045103,0.965925826289)) ;
#53=DIRECTION('Vector Direction',(1.,-1.1534784667E-16,1.1534784667E-16)) ;
#60=DIRECTION('Vector Direction',(0.,0.258819045103,0.965925826289)) ;
#72=DIRECTION('Axis2P3D Direction',(-6.12323399574E-17,3.74939945666E-33,1.)) ;
#73=DIRECTION('Axis2P3D XDirection',(-6.12323399574E-17,-1.,0.)) ;
#77=DIRECTION('Vector Direction',(1.,-5.76739233348E-17,6.12323400273E-17)) ;
#86=DIRECTION('Vector Direction',(0.,-1.,0.)) ;
#91=DIRECTION('Vector Direction',(0.,-1.,0.)) ;
#103=DIRECTION('Axis2P3D Direction',(1.,-6.12323399574E-17,6.12323399574E-17)) ;
#104=DIRECTION('Axis2P3D XDirection',(6.12323399574E-17,1.,0.)) ;
#108=DIRECTION('Vector Direction',(1.41178602033E-16,0.,-1.)) ;
#115=DIRECTION('Vector Direction',(-2.63923077605E-16,-1.,0.)) ;
#127=DIRECTION('Axis2P3D Direction',(6.12323399574E-17,-3.74939945666E-33,-1.)) ;
#128=DIRECTION('Axis2P3D XDirection',(6.12323399574E-17,1.,0.)) ;
#132=DIRECTION('Vector Direction',(1.70803542274E-16,1.,0.)) ;
#141=DIRECTION('Vector Direction',(1.,-6.12323399574E-17,7.16272919199E-17)) ;
#148=DIRECTION('Vector Direction',(8.54017711372E-17,1.,0.)) ;
#155=DIRECTION('Vector Direction',(1.,0.,7.16272919199E-17)) ;
#166=DIRECTION('Vector Direction',(0.,-1.,0.)) ;
#173=DIRECTION('Vector Direction',(1.,-5.76739233348E-17,1.1534784667E-16)) ;
#184=DIRECTION('Vector Direction',(1.,0.,1.1534784667E-16)) ;
#193=DIRECTION('Vector Direction',(0.,1.,0.)) ;
#200=DIRECTION('Vector Direction',(1.,0.,1.1534784667E-16)) ;
#207=DIRECTION('Vector Direction',(0.,1.,0.)) ;
#219=DIRECTION('Axis2P3D Direction',(1.,-6.12323399574E-17,6.12323399574E-17)) ;
#220=DIRECTION('Axis2P3D XDirection',(6.12323399574E-17,1.,0.)) ;
#224=DIRECTION('Vector Direction',(0.,0.,-1.)) ;
#236=DIRECTION('Axis2P3D Direction',(-6.12323399574E-17,-1.,-8.60484838249E-45)) ;
#237=DIRECTION('Axis2P3D XDirection',(6.12323399574E-17,-3.74939945665E-33,-1.)) ;
#248=DIRECTION('Axis2P3D Direction',(1.,-6.12323399574E-17,6.12323399574E-17)) ;
#249=DIRECTION('Axis2P3D XDirection',(6.12323399574E-17,1.,0.)) ;
#253=DIRECTION('Vector Direction',(0.,0.,-1.)) ;
#260=DIRECTION('Vector Direction',(0.,0.,1.)) ;
#267=DIRECTION('Vector Direction',(0.,1.,0.)) ;
#279=DIRECTION('Axis2P3D Direction',(-6.12323399574E-17,-1.,-8.60484838249E-45)) ;
#280=DIRECTION('Axis2P3D XDirection',(6.12323399574E-17,-3.74939945665E-33,-1.)) ;
#284=DIRECTION('Vector Direction',(1.,-6.12323399574E-17,0.)) ;
#291=DIRECTION('Vector Direction',(0.,0.,-1.)) ;
#303=DIRECTION('Axis2P3D Direction',(1.,-6.12323399574E-17,6.12323399574E-17)) ;
#304=DIRECTION('Axis2P3D XDirection',(6.12323399574E-17,1.,0.)) ;
#308=DIRECTION('Vector Direction',(6.12323399574E-17,1.,0.)) ;
#315=DIRECTION('Vector Direction',(-6.12323399574E-17,0.,1.)) ;
#327=DIRECTION('Axis2P3D Direction',(6.12323399574E-17,1.,8.60484838249E-45)) ;
#328=DIRECTION('Axis2P3D XDirection',(-6.12323399574E-17,3.74939945665E-33,1.)) ;
#332=DIRECTION('Vector Direction',(1.,0.,0.)) ;
#344=DIRECTION('Axis2P3D Direction',(6.12323399574E-17,1.,8.60484838249E-45)) ;
#345=DIRECTION('Axis2P3D XDirection',(-6.12323399574E-17,3.74939945665E-33,1.)) ;
#349=DIRECTION('Vector Direction',(0.,0.,1.)) ;
#356=DIRECTION('Vector Direction',(1.,0.,6.12323400273E-17)) ;
#363=DIRECTION('Vector Direction',(0.,0.,1.)) ;
#375=DIRECTION('Vector Direction',(-5.28810104392E-16,-1.,0.)) ;
#382=DIRECTION('Vector Direction',(-1.36368057791E-16,-0.258819045926,0.965925826068)) ;
#394=DIRECTION('Axis2P3D Direction',(4.32978028118E-17,0.965925826289,0.258819045103)) ;
#395=DIRECTION('Axis2P3D XDirection',(-7.49939943261E-17,-0.258819045103,0.965925826289)) ;
#399=DIRECTION('Vector Direction',(0.,-0.258819045103,0.965925826289)) ;
#406=DIRECTION('Vector Direction',(1.,0.,6.12323400273E-17)) ;
#418=DIRECTION('Vector Direction',(0.,-1.,0.)) ;
#430=DIRECTION('Axis2P3D Direction',(6.12323399574E-17,-3.74939945666E-33,-1.)) ;
#431=DIRECTION('Axis2P3D XDirection',(6.12323399574E-17,1.,0.)) ;
#8=PRODUCT_RELATED_PRODUCT_CATEGORY('part',$,(#5)) ;
#7=PRODUCT_CATEGORY('part','specification') ;
#29=STYLED_ITEM(' ',(#28),#21) ;
#28=PRESENTATION_STYLE_ASSIGNMENT((#27)) ;
#27=SURFACE_STYLE_USAGE(.BOTH.,#26) ;
#26=SURFACE_SIDE_STYLE(' ',(#25)) ;
#25=SURFACE_STYLE_FILL_AREA(#24) ;
#24=FILL_AREA_STYLE(' ',(#23)) ;
#23=FILL_AREA_STYLE_COLOUR(' ',#22) ;
#38=VECTOR('Line Direction',#37,1.) ;
#47=VECTOR('Line Direction',#46,1.) ;
#54=VECTOR('Line Direction',#53,1.) ;
#61=VECTOR('Line Direction',#60,1.) ;
#78=VECTOR('Line Direction',#77,1.) ;
#87=VECTOR('Line Direction',#86,1.) ;
#92=VECTOR('Line Direction',#91,1.) ;
#109=VECTOR('Line Direction',#108,1.) ;
#116=VECTOR('Line Direction',#115,1.) ;
#133=VECTOR('Line Direction',#132,1.) ;
#142=VECTOR('Line Direction',#141,1.) ;
#149=VECTOR('Line Direction',#148,1.) ;
#156=VECTOR('Line Direction',#155,1.) ;
#167=VECTOR('Line Direction',#166,1.) ;
#174=VECTOR('Line Direction',#173,1.) ;
#185=VECTOR('Line Direction',#184,1.) ;
#194=VECTOR('Line Direction',#193,1.) ;
#201=VECTOR('Line Direction',#200,1.) ;
#208=VECTOR('Line Direction',#207,1.) ;
#225=VECTOR('Line Direction',#224,1.) ;
#254=VECTOR('Line Direction',#253,1.) ;
#261=VECTOR('Line Direction',#260,1.) ;
#268=VECTOR('Line Direction',#267,1.) ;
#285=VECTOR('Line Direction',#284,1.) ;
#292=VECTOR('Line Direction',#291,1.) ;
#309=VECTOR('Line Direction',#308,1.) ;
#316=VECTOR('Line Direction',#315,1.) ;
#333=VECTOR('Line Direction',#332,1.) ;
#350=VECTOR('Line Direction',#349,1.) ;
#357=VECTOR('Line Direction',#356,1.) ;
#364=VECTOR('Line Direction',#363,1.) ;
#376=VECTOR('Line Direction',#375,1.) ;
#383=VECTOR('Line Direction',#382,1.) ;
#400=VECTOR('Line Direction',#399,1.) ;
#407=VECTOR('Line Direction',#406,1.) ;
#419=VECTOR('Line Direction',#418,1.) ;
#15=UNCERTAINTY_MEASURE_WITH_UNIT(LENGTH_MEASURE(0.005),#12,'distance_accuracy_value','CONFUSED CURVE UNCERTAINTY') ;
#449=SHAPE_REPRESENTATION_RELATIONSHIP(' ',' ',#19,#448) ;
#65=ORIENTED_EDGE('',*,*,#44,.F.) ;
#66=ORIENTED_EDGE('',*,*,#51,.T.) ;
#67=ORIENTED_EDGE('',*,*,#58,.T.) ;
#68=ORIENTED_EDGE('',*,*,#63,.F.) ;
#96=ORIENTED_EDGE('',*,*,#84,.F.) ;
#97=ORIENTED_EDGE('',*,*,#89,.T.) ;
#98=ORIENTED_EDGE('',*,*,#44,.T.) ;
#99=ORIENTED_EDGE('',*,*,#94,.F.) ;
#120=ORIENTED_EDGE('',*,*,#89,.F.) ;
#121=ORIENTED_EDGE('',*,*,#113,.F.) ;
#122=ORIENTED_EDGE('',*,*,#118,.F.) ;
#123=ORIENTED_EDGE('',*,*,#51,.F.) ;
#160=ORIENTED_EDGE('',*,*,#139,.T.) ;
#161=ORIENTED_EDGE('',*,*,#146,.F.) ;
#162=ORIENTED_EDGE('',*,*,#153,.F.) ;
#163=ORIENTED_EDGE('',*,*,#158,.T.) ;
#178=ORIENTED_EDGE('',*,*,#171,.F.) ;
#179=ORIENTED_EDGE('',*,*,#58,.F.) ;
#180=ORIENTED_EDGE('',*,*,#118,.T.) ;
#181=ORIENTED_EDGE('',*,*,#176,.T.) ;
#212=ORIENTED_EDGE('',*,*,#191,.F.) ;
#213=ORIENTED_EDGE('',*,*,#198,.F.) ;
#214=ORIENTED_EDGE('',*,*,#205,.T.) ;
#215=ORIENTED_EDGE('',*,*,#210,.T.) ;
#229=ORIENTED_EDGE('',*,*,#63,.T.) ;
#230=ORIENTED_EDGE('',*,*,#171,.T.) ;
#231=ORIENTED_EDGE('',*,*,#227,.T.) ;
#232=ORIENTED_EDGE('',*,*,#94,.T.) ;
#241=ORIENTED_EDGE('',*,*,#176,.F.) ;
#242=ORIENTED_EDGE('',*,*,#113,.T.) ;
#243=ORIENTED_EDGE('',*,*,#84,.T.) ;
#244=ORIENTED_EDGE('',*,*,#227,.F.) ;
#272=ORIENTED_EDGE('',*,*,#258,.F.) ;
#273=ORIENTED_EDGE('',*,*,#139,.F.) ;
#274=ORIENTED_EDGE('',*,*,#265,.F.) ;
#275=ORIENTED_EDGE('',*,*,#270,.F.) ;
#296=ORIENTED_EDGE('',*,*,#258,.T.) ;
#297=ORIENTED_EDGE('',*,*,#289,.F.) ;
#298=ORIENTED_EDGE('',*,*,#294,.F.) ;
#299=ORIENTED_EDGE('',*,*,#146,.T.) ;
#320=ORIENTED_EDGE('',*,*,#313,.T.) ;
#321=ORIENTED_EDGE('',*,*,#318,.T.) ;
#322=ORIENTED_EDGE('',*,*,#153,.T.) ;
#323=ORIENTED_EDGE('',*,*,#294,.T.) ;
#337=ORIENTED_EDGE('',*,*,#265,.T.) ;
#338=ORIENTED_EDGE('',*,*,#158,.F.) ;
#339=ORIENTED_EDGE('',*,*,#318,.F.) ;
#340=ORIENTED_EDGE('',*,*,#335,.T.) ;
#368=ORIENTED_EDGE('',*,*,#354,.T.) ;
#369=ORIENTED_EDGE('',*,*,#361,.F.) ;
#370=ORIENTED_EDGE('',*,*,#366,.F.) ;
#371=ORIENTED_EDGE('',*,*,#191,.T.) ;
#387=ORIENTED_EDGE('',*,*,#198,.T.) ;
#388=ORIENTED_EDGE('',*,*,#366,.T.) ;
#389=ORIENTED_EDGE('',*,*,#380,.T.) ;
#390=ORIENTED_EDGE('',*,*,#385,.T.) ;
#411=ORIENTED_EDGE('',*,*,#404,.T.) ;
#412=ORIENTED_EDGE('',*,*,#205,.F.) ;
#413=ORIENTED_EDGE('',*,*,#385,.F.) ;
#414=ORIENTED_EDGE('',*,*,#409,.T.) ;
#423=ORIENTED_EDGE('',*,*,#404,.F.) ;
#424=ORIENTED_EDGE('',*,*,#421,.F.) ;
#425=ORIENTED_EDGE('',*,*,#354,.F.) ;
#426=ORIENTED_EDGE('',*,*,#210,.F.) ;
#435=ORIENTED_EDGE('',*,*,#270,.T.) ;
#436=ORIENTED_EDGE('',*,*,#335,.F.) ;
#437=ORIENTED_EDGE('',*,*,#313,.F.) ;
#438=ORIENTED_EDGE('',*,*,#289,.T.) ;
#442=ORIENTED_EDGE('',*,*,#421,.T.) ;
#443=ORIENTED_EDGE('',*,*,#409,.F.) ;
#444=ORIENTED_EDGE('',*,*,#380,.F.) ;
#445=ORIENTED_EDGE('',*,*,#361,.T.) ;
#182=FACE_BOUND('',#177,.T.) ;
#216=FACE_BOUND('',#211,.T.) ;
#30=CLOSED_SHELL('Closed Shell',(#70,#101,#125,#217,#234,#246,#277,#301,#325,#342,#373,#392,#416,#428,#440,#447)) ;
#448=ADVANCED_BREP_SHAPE_REPRESENTATION('NONE',(#21),#16) ;
#70=ADVANCED_FACE('S3D - gedreht',(#69),#35,.T.) ;
#101=ADVANCED_FACE('S3D - gedreht',(#100),#75,.F.) ;
#125=ADVANCED_FACE('S3D - gedreht',(#124),#106,.F.) ;
#217=ADVANCED_FACE('S3D - gedreht',(#164,#182,#216),#130,.T.) ;
#234=ADVANCED_FACE('S3D - gedreht',(#233),#222,.T.) ;
#246=ADVANCED_FACE('S3D - gedreht',(#245),#239,.T.) ;
#277=ADVANCED_FACE('S3D - gedreht',(#276),#251,.T.) ;
#301=ADVANCED_FACE('S3D - gedreht',(#300),#282,.T.) ;
#325=ADVANCED_FACE('S3D - gedreht',(#324),#306,.F.) ;
#342=ADVANCED_FACE('S3D - gedreht',(#341),#330,.T.) ;
#373=ADVANCED_FACE('S3D - gedreht',(#372),#347,.T.) ;
#392=ADVANCED_FACE('S3D - gedreht',(#391),#106,.F.) ;
#416=ADVANCED_FACE('S3D - gedreht',(#415),#397,.F.) ;
#428=ADVANCED_FACE('S3D - gedreht',(#427),#222,.T.) ;
#440=ADVANCED_FACE('S3D - gedreht',(#439),#433,.F.) ;
#447=ADVANCED_FACE('S3D - gedreht',(#446),#75,.F.) ;
#4=APPLICATION_PROTOCOL_DEFINITION('international standard','automotive_design',2001,#1) ;
#21=MANIFOLD_SOLID_BREP('S3D - gedreht',#30) ;
#22=DRAUGHTING_PRE_DEFINED_COLOUR('white') ;
#44=EDGE_CURVE('',#41,#43,#39,.T.) ;
#51=EDGE_CURVE('',#41,#50,#48,.T.) ;
#58=EDGE_CURVE('',#50,#57,#55,.T.) ;
#63=EDGE_CURVE('',#43,#57,#62,.T.) ;
#84=EDGE_CURVE('',#81,#83,#79,.T.) ;
#89=EDGE_CURVE('',#81,#41,#88,.F.) ;
#94=EDGE_CURVE('',#83,#43,#93,.F.) ;
#113=EDGE_CURVE('',#112,#81,#110,.T.) ;
#118=EDGE_CURVE('',#50,#112,#117,.T.) ;
#139=EDGE_CURVE('',#136,#138,#134,.F.) ;
#146=EDGE_CURVE('',#145,#138,#143,.T.) ;
#153=EDGE_CURVE('',#152,#145,#150,.F.) ;
#158=EDGE_CURVE('',#152,#136,#157,.T.) ;
#171=EDGE_CURVE('',#57,#170,#168,.T.) ;
#176=EDGE_CURVE('',#112,#170,#175,.T.) ;
#191=EDGE_CURVE('',#188,#190,#186,.T.) ;
#198=EDGE_CURVE('',#197,#188,#195,.T.) ;
#205=EDGE_CURVE('',#197,#204,#202,.T.) ;
#210=EDGE_CURVE('',#204,#190,#209,.T.) ;
#227=EDGE_CURVE('',#170,#83,#226,.T.) ;
#258=EDGE_CURVE('',#138,#257,#255,.F.) ;
#265=EDGE_CURVE('',#264,#136,#262,.F.) ;
#270=EDGE_CURVE('',#257,#264,#269,.T.) ;
#289=EDGE_CURVE('',#288,#257,#286,.T.) ;
#294=EDGE_CURVE('',#145,#288,#293,.F.) ;
#313=EDGE_CURVE('',#288,#312,#310,.T.) ;
#318=EDGE_CURVE('',#312,#152,#317,.F.) ;
#335=EDGE_CURVE('',#312,#264,#334,.T.) ;
#354=EDGE_CURVE('',#190,#353,#351,.F.) ;
#361=EDGE_CURVE('',#360,#353,#358,.T.) ;
#366=EDGE_CURVE('',#188,#360,#365,.F.) ;
#380=EDGE_CURVE('',#360,#379,#377,.T.) ;
#385=EDGE_CURVE('',#379,#197,#384,.T.) ;
#404=EDGE_CURVE('',#403,#204,#401,.T.) ;
#409=EDGE_CURVE('',#379,#403,#408,.T.) ;
#421=EDGE_CURVE('',#353,#403,#420,.T.) ;
#64=EDGE_LOOP('',(#65,#66,#67,#68)) ;
#95=EDGE_LOOP('',(#96,#97,#98,#99)) ;
#119=EDGE_LOOP('',(#120,#121,#122,#123)) ;
#159=EDGE_LOOP('',(#160,#161,#162,#163)) ;
#177=EDGE_LOOP('',(#178,#179,#180,#181)) ;
#211=EDGE_LOOP('',(#212,#213,#214,#215)) ;
#228=EDGE_LOOP('',(#229,#230,#231,#232)) ;
#240=EDGE_LOOP('',(#241,#242,#243,#244)) ;
#271=EDGE_LOOP('',(#272,#273,#274,#275)) ;
#295=EDGE_LOOP('',(#296,#297,#298,#299)) ;
#319=EDGE_LOOP('',(#320,#321,#322,#323)) ;
#336=EDGE_LOOP('',(#337,#338,#339,#340)) ;
#367=EDGE_LOOP('',(#368,#369,#370,#371)) ;
#386=EDGE_LOOP('',(#387,#388,#389,#390)) ;
#410=EDGE_LOOP('',(#411,#412,#413,#414)) ;
#422=EDGE_LOOP('',(#423,#424,#425,#426)) ;
#434=EDGE_LOOP('',(#435,#436,#437,#438)) ;
#441=EDGE_LOOP('',(#442,#443,#444,#445)) ;
#69=FACE_OUTER_BOUND('',#64,.T.) ;
#100=FACE_OUTER_BOUND('',#95,.T.) ;
#124=FACE_OUTER_BOUND('',#119,.T.) ;
#164=FACE_OUTER_BOUND('',#159,.T.) ;
#233=FACE_OUTER_BOUND('',#228,.T.) ;
#245=FACE_OUTER_BOUND('',#240,.T.) ;
#276=FACE_OUTER_BOUND('',#271,.T.) ;
#300=FACE_OUTER_BOUND('',#295,.T.) ;
#324=FACE_OUTER_BOUND('',#319,.T.) ;
#341=FACE_OUTER_BOUND('',#336,.T.) ;
#372=FACE_OUTER_BOUND('',#367,.T.) ;
#391=FACE_OUTER_BOUND('',#386,.T.) ;
#415=FACE_OUTER_BOUND('',#410,.T.) ;
#427=FACE_OUTER_BOUND('',#422,.T.) ;
#439=FACE_OUTER_BOUND('',#434,.T.) ;
#446=FACE_OUTER_BOUND('',#441,.T.) ;
#39=LINE('Line',#36,#38) ;
#48=LINE('Line',#45,#47) ;
#55=LINE('Line',#52,#54) ;
#62=LINE('Line',#59,#61) ;
#79=LINE('Line',#76,#78) ;
#88=LINE('Line',#85,#87) ;
#93=LINE('Line',#90,#92) ;
#110=LINE('Line',#107,#109) ;
#117=LINE('Line',#114,#116) ;
#134=LINE('Line',#131,#133) ;
#143=LINE('Line',#140,#142) ;
#150=LINE('Line',#147,#149) ;
#157=LINE('Line',#154,#156) ;
#168=LINE('Line',#165,#167) ;
#175=LINE('Line',#172,#174) ;
#186=LINE('Line',#183,#185) ;
#195=LINE('Line',#192,#194) ;
#202=LINE('Line',#199,#201) ;
#209=LINE('Line',#206,#208) ;
#226=LINE('Line',#223,#225) ;
#255=LINE('Line',#252,#254) ;
#262=LINE('Line',#259,#261) ;
#269=LINE('Line',#266,#268) ;
#286=LINE('Line',#283,#285) ;
#293=LINE('Line',#290,#292) ;
#310=LINE('Line',#307,#309) ;
#317=LINE('Line',#314,#316) ;
#334=LINE('Line',#331,#333) ;
#351=LINE('Line',#348,#350) ;
#358=LINE('Line',#355,#357) ;
#365=LINE('Line',#362,#364) ;
#377=LINE('Line',#374,#376) ;
#384=LINE('Line',#381,#383) ;
#401=LINE('Line',#398,#400) ;
#408=LINE('Line',#405,#407) ;
#420=LINE('Line',#417,#419) ;
#35=PLANE('',#34) ;
#75=PLANE('',#74) ;
#106=PLANE('',#105) ;
#130=PLANE('',#129) ;
#222=PLANE('',#221) ;
#239=PLANE('',#238) ;
#251=PLANE('',#250) ;
#282=PLANE('',#281) ;
#306=PLANE('',#305) ;
#330=PLANE('',#329) ;
#347=PLANE('',#346) ;
#397=PLANE('',#396) ;
#433=PLANE('',#432) ;
#9=PRODUCT_CATEGORY_RELATIONSHIP(' ',' ',#7,#8) ;
#6=PRODUCT_DEFINITION_FORMATION_WITH_SPECIFIED_SOURCE('',' ',#5,.NOT_KNOWN.) ;
#20=SHAPE_DEFINITION_REPRESENTATION(#11,#19) ;
#41=VERTEX_POINT('',#40) ;
#43=VERTEX_POINT('',#42) ;
#50=VERTEX_POINT('',#49) ;
#57=VERTEX_POINT('',#56) ;
#81=VERTEX_POINT('',#80) ;
#83=VERTEX_POINT('',#82) ;
#112=VERTEX_POINT('',#111) ;
#136=VERTEX_POINT('',#135) ;
#138=VERTEX_POINT('',#137) ;
#145=VERTEX_POINT('',#144) ;
#152=VERTEX_POINT('',#151) ;
#170=VERTEX_POINT('',#169) ;
#188=VERTEX_POINT('',#187) ;
#190=VERTEX_POINT('',#189) ;
#197=VERTEX_POINT('',#196) ;
#204=VERTEX_POINT('',#203) ;
#257=VERTEX_POINT('',#256) ;
#264=VERTEX_POINT('',#263) ;
#288=VERTEX_POINT('',#287) ;
#312=VERTEX_POINT('',#311) ;
#353=VERTEX_POINT('',#352) ;
#360=VERTEX_POINT('',#359) ;
#379=VERTEX_POINT('',#378) ;
#403=VERTEX_POINT('',#402) ;
#12=(LENGTH_UNIT()NAMED_UNIT(*)SI_UNIT(.MILLI.,.METRE.)) ;
#13=(NAMED_UNIT(*)PLANE_ANGLE_UNIT()SI_UNIT($,.RADIAN.)) ;
#14=(NAMED_UNIT(*)SI_UNIT($,.STERADIAN.)SOLID_ANGLE_UNIT()) ;
#16=(GEOMETRIC_REPRESENTATION_CONTEXT(3)GLOBAL_UNCERTAINTY_ASSIGNED_CONTEXT((#15))GLOBAL_UNIT_ASSIGNED_CONTEXT((#12,#13,#14))REPRESENTATION_CONTEXT(' ',' ')) ;
ENDSEC;
END-ISO-10303-21;
