ISO-10303-21;
HEADER;
FILE_DESCRIPTION(('CATIA V5 STEP Exchange','CAx-IF Rec.Pracs.--- Model Styling and Organization---1.5--- 2016-08-15','CAx-IF Rec.Pracs.---Supplemental Geometry---1.0---2011-11-01','CAx-IF Rec.Pracs.--- Composite Materials ---1.1---2010-07-15'),'2;1');

FILE_NAME ('D1460526_0', '2025-09-22T05:11:48+00:00', ('none'), ('Weidmueller'), 'CATIA Version 5-6 Release 2024 SP4', 'CATIA V5 STEP AP214 v3', 'none');

FILE_SCHEMA(('AUTOMOTIVE_DESIGN { 1 0 10303 214 1 1 1 1 }'));

ENDSEC;
DATA;
#5=PRODUCT('HSS-HF 1" 17.0-23.0/25','','<Q-CHECKER_SEAL> Q-Checker Version 2.14.8  \X2\000A\X0\CATIA-Version         : Catia V5 R20 SP5 Build Date 01-06-2014.17.15\X2\000A\X0\Model size (in KByte) : 0\X2\000A\X0\Checking date         : 2015-11-09 14:44:48\X2\000A\X0\Checking profile      : ADMIN / Release_CATDrawings [CATPart]\X2\000A\X0\Model assessment      : In Ordnung (IO)\X2\000A\X0\Total weight sum      : 0\X2\000A\X0\<CROSS_CHECK_SUM>\X2\000A\X0\  <CHKSUM_DATE> 562756764 </CHKSUM_DATE>\X2\000A\X0\  <CHKSUM_ENTITIES> -100028096 </CHKSUM_ENTITIES>\X2\000A\X0\  <CHKSUM_PROFILE> 1832121173 </CHKSUM_PROFILE>\X2\000A\X0\  <CHKSUM_DIMENSION> -186917087 </CHKSUM_DIMENSION>\X2\000A\X0\  <CHKSUM_PROJINTERSEC> -896974048 </CHKSUM_PROJINTERSEC>\X2\000A\X0\  <CHKSUM_IDENTCRV> -896974048 </CHKSUM_IDENTCRV>\X2\000A\X0\  <CHKSUM_INFINITY> 138018827 </CHKSUM_INFINITY>\X2\000A\X0\</CROSS_CHECK_SUM>\X2\000A\X0\</Q-CHECKER_SEAL> \X2\000A\X0\ \X2\000D\X0\\X2\000A\X0\ \X2\000D\X0\\X2\000A\X0\ \X2\000D\X0\\X2\000A\X0\ \X2\000D\X0\\X2\000A\X0\',(#2)) ;
#2=PRODUCT_CONTEXT(' ',#1,'mechanical') ;
#1=APPLICATION_CONTEXT('automotive design') ;
#10=PRODUCT_DEFINITION('',' ',#6,#3) ;
#3=PRODUCT_DEFINITION_CONTEXT('part definition',#1,' ') ;
#11=PRODUCT_DEFINITION_SHAPE(' ',' ',#10) ;
#181=MECHANICAL_DESIGN_GEOMETRIC_PRESENTATION_REPRESENTATION(' ',(#29),#16) ;
#19=SHAPE_REPRESENTATION(' ',(#18),#16) ;
#18=AXIS2_PLACEMENT_3D(' ',#17,$,$) ;
#34=AXIS2_PLACEMENT_3D('Plane Axis2P3D',#31,#32,#33) ;
#74=AXIS2_PLACEMENT_3D('Plane Axis2P3D',#71,#72,#73) ;
#105=AXIS2_PLACEMENT_3D('Plane Axis2P3D',#102,#103,#104) ;
#129=AXIS2_PLACEMENT_3D('Plane Axis2P3D',#126,#127,#128) ;
#153=AXIS2_PLACEMENT_3D('Plane Axis2P3D',#150,#151,#152) ;
#170=AXIS2_PLACEMENT_3D('Plane Axis2P3D',#167,#168,#169) ;
#17=CARTESIAN_POINT(' ',(0.,0.,0.)) ;
#31=CARTESIAN_POINT('Axis2P3D Location',(0.,12.7,0.199999999255)) ;
#36=CARTESIAN_POINT('Line Origine',(0.,12.7,5.80646641879E-14)) ;
#40=CARTESIAN_POINT('Vertex',(-7.77650717413E-16,7.4505734915E-10,5.80646641879E-14)) ;
#42=CARTESIAN_POINT('Vertex',(7.77650717413E-16,25.3999999993,5.80646641879E-14)) ;
#45=CARTESIAN_POINT('Line Origine',(-7.77650717413E-16,7.4505734915E-10,0.0999999996275)) ;
#49=CARTESIAN_POINT('Vertex',(-7.77650717413E-16,7.4505734915E-10,0.199999999255)) ;
#52=CARTESIAN_POINT('Line Origine',(0.,12.7,0.199999999255)) ;
#56=CARTESIAN_POINT('Vertex',(7.77650717413E-16,25.3999999993,0.199999999255)) ;
#59=CARTESIAN_POINT('Line Origine',(7.77650717413E-16,25.3999999993,0.0999999996275)) ;
#71=CARTESIAN_POINT('Axis2P3D Location',(0.,12.7,-7.45058070795E-10)) ;
#76=CARTESIAN_POINT('Line Origine',(42.3000000007,12.7,-7.45058070795E-10)) ;
#80=CARTESIAN_POINT('Vertex',(42.3000000007,7.45055572793E-10,-7.45058070795E-10)) ;
#82=CARTESIAN_POINT('Vertex',(42.3000000007,25.3999999993,-7.45058070795E-10)) ;
#85=CARTESIAN_POINT('Line Origine',(21.1500000004,7.45056460971E-10,-7.45058070795E-10)) ;
#90=CARTESIAN_POINT('Line Origine',(21.1500000004,25.3999999993,-7.45058070795E-10)) ;
#102=CARTESIAN_POINT('Axis2P3D Location',(21.15,0.,-0.300000000745)) ;
#107=CARTESIAN_POINT('Line Origine',(42.3000000004,-1.29506399012E-15,0.0999999996275)) ;
#111=CARTESIAN_POINT('Vertex',(42.3000000004,-1.29506399012E-15,0.199999999255)) ;
#114=CARTESIAN_POINT('Line Origine',(21.15,0.,0.199999999255)) ;
#126=CARTESIAN_POINT('Axis2P3D Location',(42.3,12.7,0.199999999255)) ;
#131=CARTESIAN_POINT('Line Origine',(42.3,12.7,0.199999999255)) ;
#135=CARTESIAN_POINT('Vertex',(42.3,25.3999999993,0.199999999255)) ;
#138=CARTESIAN_POINT('Line Origine',(21.1499999996,25.3999999993,0.199999999255)) ;
#150=CARTESIAN_POINT('Axis2P3D Location',(21.15,25.4,-0.300000000745)) ;
#155=CARTESIAN_POINT('Line Origine',(42.3000000004,25.4,0.0999999996275)) ;
#167=CARTESIAN_POINT('Axis2P3D Location',(42.3,12.7,0.199999999255)) ;
#32=DIRECTION('Axis2P3D Direction',(1.,-6.12323399574E-17,0.)) ;
#33=DIRECTION('Axis2P3D XDirection',(0.,0.,-1.)) ;
#37=DIRECTION('Vector Direction',(6.12323399574E-17,1.,0.)) ;
#46=DIRECTION('Vector Direction',(0.,0.,-1.)) ;
#53=DIRECTION('Vector Direction',(6.12323399574E-17,1.,0.)) ;
#60=DIRECTION('Vector Direction',(0.,0.,-1.)) ;
#72=DIRECTION('Axis2P3D Direction',(-0.,0.,1.)) ;
#73=DIRECTION('Axis2P3D XDirection',(1.,-6.12323399574E-17,0.)) ;
#77=DIRECTION('Vector Direction',(0.,1.,0.)) ;
#86=DIRECTION('Vector Direction',(1.,-4.19942515217E-17,0.)) ;
#91=DIRECTION('Vector Direction',(1.,-8.39885030434E-17,0.)) ;
#103=DIRECTION('Axis2P3D Direction',(6.12323399574E-17,1.,-0.)) ;
#104=DIRECTION('Axis2P3D XDirection',(-1.,6.12323399574E-17,0.)) ;
#108=DIRECTION('Vector Direction',(0.,0.,-1.)) ;
#115=DIRECTION('Vector Direction',(-1.,6.12323399574E-17,0.)) ;
#127=DIRECTION('Axis2P3D Direction',(0.,0.,-1.)) ;
#128=DIRECTION('Axis2P3D XDirection',(-1.,6.12323399574E-17,0.)) ;
#132=DIRECTION('Vector Direction',(0.,1.,0.)) ;
#139=DIRECTION('Vector Direction',(-1.,8.39885030434E-17,0.)) ;
#151=DIRECTION('Axis2P3D Direction',(6.12323399574E-17,1.,-0.)) ;
#152=DIRECTION('Axis2P3D XDirection',(-1.,6.12323399574E-17,0.)) ;
#156=DIRECTION('Vector Direction',(0.,0.,-1.)) ;
#168=DIRECTION('Axis2P3D Direction',(1.,-6.12323399574E-17,0.)) ;
#169=DIRECTION('Axis2P3D XDirection',(0.,0.,-1.)) ;
#8=PRODUCT_RELATED_PRODUCT_CATEGORY('part',$,(#5)) ;
#7=PRODUCT_CATEGORY('part','specification') ;
#29=STYLED_ITEM(' ',(#28),#21) ;
#28=PRESENTATION_STYLE_ASSIGNMENT((#27)) ;
#27=SURFACE_STYLE_USAGE(.BOTH.,#26) ;
#26=SURFACE_SIDE_STYLE(' ',(#25)) ;
#25=SURFACE_STYLE_FILL_AREA(#24) ;
#24=FILL_AREA_STYLE(' ',(#23)) ;
#23=FILL_AREA_STYLE_COLOUR(' ',#22) ;
#38=VECTOR('Line Direction',#37,1.) ;
#47=VECTOR('Line Direction',#46,1.) ;
#54=VECTOR('Line Direction',#53,1.) ;
#61=VECTOR('Line Direction',#60,1.) ;
#78=VECTOR('Line Direction',#77,1.) ;
#87=VECTOR('Line Direction',#86,1.) ;
#92=VECTOR('Line Direction',#91,1.) ;
#109=VECTOR('Line Direction',#108,1.) ;
#116=VECTOR('Line Direction',#115,1.) ;
#133=VECTOR('Line Direction',#132,1.) ;
#140=VECTOR('Line Direction',#139,1.) ;
#157=VECTOR('Line Direction',#156,1.) ;
#15=UNCERTAINTY_MEASURE_WITH_UNIT(LENGTH_MEASURE(0.005),#12,'distance_accuracy_value','CONFUSED CURVE UNCERTAINTY') ;
#180=SHAPE_REPRESENTATION_RELATIONSHIP(' ',' ',#19,#179) ;
#65=ORIENTED_EDGE('',*,*,#44,.F.) ;
#66=ORIENTED_EDGE('',*,*,#51,.T.) ;
#67=ORIENTED_EDGE('',*,*,#58,.T.) ;
#68=ORIENTED_EDGE('',*,*,#63,.F.) ;
#96=ORIENTED_EDGE('',*,*,#84,.F.) ;
#97=ORIENTED_EDGE('',*,*,#89,.T.) ;
#98=ORIENTED_EDGE('',*,*,#44,.T.) ;
#99=ORIENTED_EDGE('',*,*,#94,.F.) ;
#120=ORIENTED_EDGE('',*,*,#89,.F.) ;
#121=ORIENTED_EDGE('',*,*,#113,.F.) ;
#122=ORIENTED_EDGE('',*,*,#118,.F.) ;
#123=ORIENTED_EDGE('',*,*,#51,.F.) ;
#144=ORIENTED_EDGE('',*,*,#58,.F.) ;
#145=ORIENTED_EDGE('',*,*,#118,.T.) ;
#146=ORIENTED_EDGE('',*,*,#137,.T.) ;
#147=ORIENTED_EDGE('',*,*,#142,.F.) ;
#161=ORIENTED_EDGE('',*,*,#63,.T.) ;
#162=ORIENTED_EDGE('',*,*,#142,.T.) ;
#163=ORIENTED_EDGE('',*,*,#159,.T.) ;
#164=ORIENTED_EDGE('',*,*,#94,.T.) ;
#173=ORIENTED_EDGE('',*,*,#137,.F.) ;
#174=ORIENTED_EDGE('',*,*,#113,.T.) ;
#175=ORIENTED_EDGE('',*,*,#84,.T.) ;
#176=ORIENTED_EDGE('',*,*,#159,.F.) ;
#30=CLOSED_SHELL('Closed Shell',(#70,#101,#125,#149,#166,#178)) ;
#179=ADVANCED_BREP_SHAPE_REPRESENTATION('NONE',(#21),#16) ;
#70=ADVANCED_FACE('S3D - gedreht',(#69),#35,.F.) ;
#101=ADVANCED_FACE('S3D - gedreht',(#100),#75,.F.) ;
#125=ADVANCED_FACE('S3D - gedreht',(#124),#106,.F.) ;
#149=ADVANCED_FACE('S3D - gedreht',(#148),#130,.F.) ;
#166=ADVANCED_FACE('S3D - gedreht',(#165),#154,.T.) ;
#178=ADVANCED_FACE('S3D - gedreht',(#177),#171,.T.) ;
#4=APPLICATION_PROTOCOL_DEFINITION('international standard','automotive_design',2001,#1) ;
#21=MANIFOLD_SOLID_BREP('S3D - gedreht',#30) ;
#22=DRAUGHTING_PRE_DEFINED_COLOUR('yellow') ;
#44=EDGE_CURVE('',#41,#43,#39,.T.) ;
#51=EDGE_CURVE('',#41,#50,#48,.F.) ;
#58=EDGE_CURVE('',#50,#57,#55,.T.) ;
#63=EDGE_CURVE('',#43,#57,#62,.F.) ;
#84=EDGE_CURVE('',#81,#83,#79,.T.) ;
#89=EDGE_CURVE('',#81,#41,#88,.F.) ;
#94=EDGE_CURVE('',#83,#43,#93,.F.) ;
#113=EDGE_CURVE('',#112,#81,#110,.T.) ;
#118=EDGE_CURVE('',#50,#112,#117,.F.) ;
#137=EDGE_CURVE('',#112,#136,#134,.T.) ;
#142=EDGE_CURVE('',#57,#136,#141,.F.) ;
#159=EDGE_CURVE('',#136,#83,#158,.T.) ;
#64=EDGE_LOOP('',(#65,#66,#67,#68)) ;
#95=EDGE_LOOP('',(#96,#97,#98,#99)) ;
#119=EDGE_LOOP('',(#120,#121,#122,#123)) ;
#143=EDGE_LOOP('',(#144,#145,#146,#147)) ;
#160=EDGE_LOOP('',(#161,#162,#163,#164)) ;
#172=EDGE_LOOP('',(#173,#174,#175,#176)) ;
#69=FACE_OUTER_BOUND('',#64,.T.) ;
#100=FACE_OUTER_BOUND('',#95,.T.) ;
#124=FACE_OUTER_BOUND('',#119,.T.) ;
#148=FACE_OUTER_BOUND('',#143,.T.) ;
#165=FACE_OUTER_BOUND('',#160,.T.) ;
#177=FACE_OUTER_BOUND('',#172,.T.) ;
#39=LINE('Line',#36,#38) ;
#48=LINE('Line',#45,#47) ;
#55=LINE('Line',#52,#54) ;
#62=LINE('Line',#59,#61) ;
#79=LINE('Line',#76,#78) ;
#88=LINE('Line',#85,#87) ;
#93=LINE('Line',#90,#92) ;
#110=LINE('Line',#107,#109) ;
#117=LINE('Line',#114,#116) ;
#134=LINE('Line',#131,#133) ;
#141=LINE('Line',#138,#140) ;
#158=LINE('Line',#155,#157) ;
#35=PLANE('',#34) ;
#75=PLANE('',#74) ;
#106=PLANE('',#105) ;
#130=PLANE('',#129) ;
#154=PLANE('',#153) ;
#171=PLANE('',#170) ;
#9=PRODUCT_CATEGORY_RELATIONSHIP(' ',' ',#7,#8) ;
#6=PRODUCT_DEFINITION_FORMATION_WITH_SPECIFIED_SOURCE('',' ',#5,.NOT_KNOWN.) ;
#20=SHAPE_DEFINITION_REPRESENTATION(#11,#19) ;
#41=VERTEX_POINT('',#40) ;
#43=VERTEX_POINT('',#42) ;
#50=VERTEX_POINT('',#49) ;
#57=VERTEX_POINT('',#56) ;
#81=VERTEX_POINT('',#80) ;
#83=VERTEX_POINT('',#82) ;
#112=VERTEX_POINT('',#111) ;
#136=VERTEX_POINT('',#135) ;
#12=(LENGTH_UNIT()NAMED_UNIT(*)SI_UNIT(.MILLI.,.METRE.)) ;
#13=(NAMED_UNIT(*)PLANE_ANGLE_UNIT()SI_UNIT($,.RADIAN.)) ;
#14=(NAMED_UNIT(*)SI_UNIT($,.STERADIAN.)SOLID_ANGLE_UNIT()) ;
#16=(GEOMETRIC_REPRESENTATION_CONTEXT(3)GLOBAL_UNCERTAINTY_ASSIGNED_CONTEXT((#15))GLOBAL_UNIT_ASSIGNED_CONTEXT((#12,#13,#14))REPRESENTATION_CONTEXT(' ',' ')) ;
ENDSEC;
END-ISO-10303-21;
