ISO-10303-21;
HEADER;
FILE_DESCRIPTION(('CATIA V5 STEP Exchange','CAx-IF Rec.Pracs.--- Model Styling and Organization---1.4--- 2014-01-23'),'2;1');

FILE_NAME ('008230-2_1', '2019-11-20T14:30:49+00:00', ('none'), ('Weidmueller'), 'CATIA Version 5-6 Release 2016 SP3 HF44', 'CATIA V5 STEP AP214', 'none');

FILE_SCHEMA(('AUTOMOTIVE_DESIGN { 1 0 10303 214 1 1 1 1 }'));

ENDSEC;
DATA;
#5=PRODUCT('1170250000','','',(#2)) ;
#2=PRODUCT_CONTEXT(' ',#1,'mechanical') ;
#1=APPLICATION_CONTEXT('automotive design') ;
#10=PRODUCT_DEFINITION('',' ',#6,#3) ;
#3=PRODUCT_DEFINITION_CONTEXT('part definition',#1,' ') ;
#11=PRODUCT_DEFINITION_SHAPE(' ',' ',#10) ;
#474=MECHANICAL_DESIGN_GEOMETRIC_PRESENTATION_REPRESENTATION(' ',(#29),#16) ;
#19=SHAPE_REPRESENTATION(' ',(#18),#16) ;
#18=AXIS2_PLACEMENT_3D(' ',#17,$,$) ;
#34=AXIS2_PLACEMENT_3D('Cone Axis2P3D',#31,#32,#33) ;
#38=AXIS2_PLACEMENT_3D('Circle Axis2P3D',#36,#37,$) ;
#54=AXIS2_PLACEMENT_3D('Circle Axis2P3D',#52,#53,$) ;
#74=AXIS2_PLACEMENT_3D('Plane Axis2P3D',#71,#72,#73) ;
#104=AXIS2_PLACEMENT_3D('Cone Axis2P3D',#101,#102,#103) ;
#108=AXIS2_PLACEMENT_3D('Circle Axis2P3D',#106,#107,$) ;
#121=AXIS2_PLACEMENT_3D('Cylinder Axis2P3D',#118,#119,#120) ;
#125=AXIS2_PLACEMENT_3D('Circle Axis2P3D',#123,#124,$) ;
#152=AXIS2_PLACEMENT_3D('Cylinder Axis2P3D',#149,#150,#151) ;
#156=AXIS2_PLACEMENT_3D('Circle Axis2P3D',#154,#155,$) ;
#169=AXIS2_PLACEMENT_3D('Plane Axis2P3D',#166,#167,#168) ;
#233=AXIS2_PLACEMENT_3D('Cylinder Axis2P3D',#230,#231,#232) ;
#237=AXIS2_PLACEMENT_3D('Circle Axis2P3D',#235,#236,$) ;
#264=AXIS2_PLACEMENT_3D('Cylinder Axis2P3D',#261,#262,#263) ;
#287=AXIS2_PLACEMENT_3D('Plane Axis2P3D',#284,#285,#286) ;
#295=AXIS2_PLACEMENT_3D('Circle Axis2P3D',#293,#294,$) ;
#304=AXIS2_PLACEMENT_3D('Circle Axis2P3D',#302,#303,$) ;
#315=AXIS2_PLACEMENT_3D('Cylinder Axis2P3D',#312,#313,#314) ;
#319=AXIS2_PLACEMENT_3D('Circle Axis2P3D',#317,#318,$) ;
#346=AXIS2_PLACEMENT_3D('Cylinder Axis2P3D',#343,#344,#345) ;
#369=AXIS2_PLACEMENT_3D('Cone Axis2P3D',#366,#367,#368) ;
#380=AXIS2_PLACEMENT_3D('Circle Axis2P3D',#378,#379,$) ;
#400=AXIS2_PLACEMENT_3D('Cone Axis2P3D',#397,#398,#399) ;
#404=AXIS2_PLACEMENT_3D('Circle Axis2P3D',#402,#403,$) ;
#417=AXIS2_PLACEMENT_3D('Cylinder Axis2P3D',#414,#415,#416) ;
#421=AXIS2_PLACEMENT_3D('Circle Axis2P3D',#419,#420,$) ;
#448=AXIS2_PLACEMENT_3D('Cylinder Axis2P3D',#445,#446,#447) ;
#452=AXIS2_PLACEMENT_3D('Circle Axis2P3D',#450,#451,$) ;
#465=AXIS2_PLACEMENT_3D('Plane Axis2P3D',#462,#463,#464) ;
#17=CARTESIAN_POINT(' ',(0.,0.,0.)) ;
#31=CARTESIAN_POINT('Axis2P3D Location',(1.65,1.65,1.)) ;
#36=CARTESIAN_POINT('Axis2P3D Location',(1.65,1.65,-5.3290705182E-015)) ;
#40=CARTESIAN_POINT('Vertex',(2.07264973081,1.65,-5.3290705182E-015)) ;
#42=CARTESIAN_POINT('Vertex',(1.22735026919,1.65,-5.55111512313E-015)) ;
#45=CARTESIAN_POINT('Line Origine',(250002.15,1.64999999997,433012.835867)) ;
#49=CARTESIAN_POINT('Vertex',(2.65,1.65,1.)) ;
#52=CARTESIAN_POINT('Axis2P3D Location',(1.65,1.65,1.)) ;
#56=CARTESIAN_POINT('Vertex',(0.65,1.65,1.)) ;
#59=CARTESIAN_POINT('Line Origine',(-249998.85,1.65,433012.835867)) ;
#71=CARTESIAN_POINT('Axis2P3D Location',(1.65,1.65,-1.7763568394E-015)) ;
#77=CARTESIAN_POINT('Control Point',(1.22735027,1.65,-1.7763568394E-015)) ;
#78=CARTESIAN_POINT('Control Point',(1.22735027,1.71369472859,-1.7763568394E-015)) ;
#79=CARTESIAN_POINT('Control Point',(1.23934903084,1.77738845347,-1.7763568394E-015)) ;
#80=CARTESIAN_POINT('Control Point',(1.26336328475,1.83808136104,-1.7763568394E-015)) ;
#81=CARTESIAN_POINT('Control Point',(1.33302867187,1.94740290451,-1.7763568394E-015)) ;
#82=CARTESIAN_POINT('Control Point',(1.4376922049,2.02388158102,-1.7763568394E-015)) ;
#83=CARTESIAN_POINT('Control Point',(1.49673313361,2.05171111,-1.7763568394E-015)) ;
#84=CARTESIAN_POINT('Control Point',(1.6223390955,2.08376743192,-1.7763568394E-015)) ;
#85=CARTESIAN_POINT('Control Point',(1.75099555175,2.0679257533,-1.7763568394E-015)) ;
#86=CARTESIAN_POINT('Control Point',(1.8130937461,2.04782279752,-1.7763568394E-015)) ;
#87=CARTESIAN_POINT('Control Point',(1.92662731381,1.98525608104,-1.7763568394E-015)) ;
#88=CARTESIAN_POINT('Control Point',(2.00961194815,1.88567198312,-1.7763568394E-015)) ;
#89=CARTESIAN_POINT('Control Point',(2.04114254716,1.82852186417,-1.7763568394E-015)) ;
#90=CARTESIAN_POINT('Control Point',(2.06451341109,1.75644787791,-1.7763568394E-015)) ;
#91=CARTESIAN_POINT('Control Point',(2.07162052643,1.68229248366,-1.7763568394E-015)) ;
#92=CARTESIAN_POINT('Control Point',(2.07230712623,1.67152593038,-1.7763568394E-015)) ;
#93=CARTESIAN_POINT('Control Point',(2.07264973,1.66076295086,-1.7763568394E-015)) ;
#94=CARTESIAN_POINT('Control Point',(2.07264973,1.65,-1.7763568394E-015)) ;
#101=CARTESIAN_POINT('Axis2P3D Location',(1.65,1.65,1.)) ;
#106=CARTESIAN_POINT('Axis2P3D Location',(1.65,1.65,1.)) ;
#118=CARTESIAN_POINT('Axis2P3D Location',(1.65,1.65,-1.7763568394E-015)) ;
#123=CARTESIAN_POINT('Axis2P3D Location',(1.65,1.65,8.)) ;
#127=CARTESIAN_POINT('Vertex',(2.65,1.65,8.)) ;
#129=CARTESIAN_POINT('Vertex',(0.65,1.65,8.)) ;
#132=CARTESIAN_POINT('Line Origine',(0.65,1.65,0.)) ;
#137=CARTESIAN_POINT('Line Origine',(2.65,1.65,0.)) ;
#149=CARTESIAN_POINT('Axis2P3D Location',(1.65,1.65,-1.7763568394E-015)) ;
#154=CARTESIAN_POINT('Axis2P3D Location',(1.65,1.65,8.)) ;
#166=CARTESIAN_POINT('Axis2P3D Location',(1.65,0.15,8.)) ;
#172=CARTESIAN_POINT('Control Point',(3.15,1.65,8.)) ;
#173=CARTESIAN_POINT('Control Point',(3.15,1.4700040828,8.)) ;
#174=CARTESIAN_POINT('Control Point',(3.12300122484,1.29000880196,8.)) ;
#175=CARTESIAN_POINT('Control Point',(3.06898740997,1.11539555319,8.)) ;
#176=CARTESIAN_POINT('Control Point',(2.9102861125,0.78779110944,8.)) ;
#177=CARTESIAN_POINT('Control Point',(2.662454049,0.521167387652,8.)) ;
#178=CARTESIAN_POINT('Control Point',(2.51928047106,0.407551349432,8.)) ;
#179=CARTESIAN_POINT('Control Point',(2.20331925695,0.226777228463,8.)) ;
#180=CARTESIAN_POINT('Control Point',(1.84822755345,0.146659683989,8.)) ;
#181=CARTESIAN_POINT('Control Point',(1.66590884555,0.133730203143,8.)) ;
#182=CARTESIAN_POINT('Control Point',(1.30306206176,0.162936004835,8.)) ;
#183=CARTESIAN_POINT('Control Point',(0.964754468991,0.297311996992,8.)) ;
#184=CARTESIAN_POINT('Control Point',(0.806979805543,0.38958572736,8.)) ;
#185=CARTESIAN_POINT('Control Point',(0.524000269278,0.618569021116,8.)) ;
#186=CARTESIAN_POINT('Control Point',(0.320657357483,0.920497148886,8.)) ;
#187=CARTESIAN_POINT('Control Point',(0.24254197809,1.08574021672,8.)) ;
#188=CARTESIAN_POINT('Control Point',(0.178115165716,1.3012619012,8.)) ;
#189=CARTESIAN_POINT('Control Point',(0.154514676707,1.5226022551,8.)) ;
#190=CARTESIAN_POINT('Control Point',(0.151502380735,1.56507984016,8.)) ;
#191=CARTESIAN_POINT('Control Point',(0.15,1.60753993779,8.)) ;
#192=CARTESIAN_POINT('Control Point',(0.15,1.65,8.)) ;
#193=CARTESIAN_POINT('Vertex',(3.15,1.65,8.)) ;
#195=CARTESIAN_POINT('Vertex',(0.15,1.65,8.)) ;
#199=CARTESIAN_POINT('Control Point',(0.15,1.65,8.)) ;
#200=CARTESIAN_POINT('Control Point',(0.15,1.8299959172,8.)) ;
#201=CARTESIAN_POINT('Control Point',(0.176998775164,2.00999119803,8.)) ;
#202=CARTESIAN_POINT('Control Point',(0.231012590029,2.18460444681,8.)) ;
#203=CARTESIAN_POINT('Control Point',(0.389713887496,2.51220889056,8.)) ;
#204=CARTESIAN_POINT('Control Point',(0.637545951001,2.77883261235,8.)) ;
#205=CARTESIAN_POINT('Control Point',(0.780719528937,2.89244865057,8.)) ;
#206=CARTESIAN_POINT('Control Point',(1.09668074305,3.07322277154,8.)) ;
#207=CARTESIAN_POINT('Control Point',(1.45177244655,3.15334031601,8.)) ;
#208=CARTESIAN_POINT('Control Point',(1.63409115446,3.16626979686,8.)) ;
#209=CARTESIAN_POINT('Control Point',(1.99693793824,3.13706399517,8.)) ;
#210=CARTESIAN_POINT('Control Point',(2.33524553101,3.00268800301,8.)) ;
#211=CARTESIAN_POINT('Control Point',(2.49302019446,2.91041427264,8.)) ;
#212=CARTESIAN_POINT('Control Point',(2.77599973072,2.68143097888,8.)) ;
#213=CARTESIAN_POINT('Control Point',(2.97934264252,2.37950285111,8.)) ;
#214=CARTESIAN_POINT('Control Point',(3.05745802191,2.21425978328,8.)) ;
#215=CARTESIAN_POINT('Control Point',(3.12188483428,1.9987380988,8.)) ;
#216=CARTESIAN_POINT('Control Point',(3.14548532329,1.7773977449,8.)) ;
#217=CARTESIAN_POINT('Control Point',(3.14849761926,1.73492015984,8.)) ;
#218=CARTESIAN_POINT('Control Point',(3.15,1.69246006221,8.)) ;
#219=CARTESIAN_POINT('Control Point',(3.15,1.65,8.)) ;
#230=CARTESIAN_POINT('Axis2P3D Location',(1.65,1.65,-1.7763568394E-015)) ;
#235=CARTESIAN_POINT('Axis2P3D Location',(1.65,1.65,9.80000000075)) ;
#239=CARTESIAN_POINT('Vertex',(3.15,1.65,9.80000000075)) ;
#241=CARTESIAN_POINT('Vertex',(0.15,1.65,9.80000000075)) ;
#244=CARTESIAN_POINT('Line Origine',(0.15,1.65,0.)) ;
#249=CARTESIAN_POINT('Line Origine',(3.15,1.65,0.)) ;
#261=CARTESIAN_POINT('Axis2P3D Location',(1.65,1.65,-1.7763568394E-015)) ;
#267=CARTESIAN_POINT('Control Point',(0.15,1.65,9.8)) ;
#268=CARTESIAN_POINT('Control Point',(0.15,2.12123889804,9.80000000007)) ;
#269=CARTESIAN_POINT('Control Point',(0.33505508252,2.59247779608,9.80000000015)) ;
#270=CARTESIAN_POINT('Control Point',(0.707522203923,2.96494491748,9.80000000022)) ;
#271=CARTESIAN_POINT('Control Point',(1.65,3.33505508252,9.80000000037)) ;
#272=CARTESIAN_POINT('Control Point',(2.59247779608,2.96494491748,9.80000000052)) ;
#273=CARTESIAN_POINT('Control Point',(2.96494491748,2.59247779608,9.8000000006)) ;
#274=CARTESIAN_POINT('Control Point',(3.15,2.12123889804,9.80000000067)) ;
#275=CARTESIAN_POINT('Control Point',(3.15,1.65,9.80000000075)) ;
#284=CARTESIAN_POINT('Axis2P3D Location',(1.65,0.4,9.8)) ;
#293=CARTESIAN_POINT('Axis2P3D Location',(1.65,1.65,9.8)) ;
#297=CARTESIAN_POINT('Vertex',(2.9,1.65,9.80000000075)) ;
#299=CARTESIAN_POINT('Vertex',(0.4,1.65,9.80000000075)) ;
#302=CARTESIAN_POINT('Axis2P3D Location',(1.65,1.65,9.8)) ;
#312=CARTESIAN_POINT('Axis2P3D Location',(1.65,1.65,-1.7763568394E-015)) ;
#317=CARTESIAN_POINT('Axis2P3D Location',(1.65,1.65,11.3000000007)) ;
#321=CARTESIAN_POINT('Vertex',(2.9,1.65,11.3000000007)) ;
#323=CARTESIAN_POINT('Vertex',(0.4,1.65,11.3000000007)) ;
#326=CARTESIAN_POINT('Line Origine',(0.4,1.65,0.)) ;
#331=CARTESIAN_POINT('Line Origine',(2.9,1.65,0.)) ;
#343=CARTESIAN_POINT('Axis2P3D Location',(1.65,1.65,-1.7763568394E-015)) ;
#349=CARTESIAN_POINT('Control Point',(0.4,1.65,11.3)) ;
#350=CARTESIAN_POINT('Control Point',(0.4,2.0426990817,11.3000000001)) ;
#351=CARTESIAN_POINT('Control Point',(0.554212568767,2.4353981634,11.3000000001)) ;
#352=CARTESIAN_POINT('Control Point',(0.864601836603,2.74578743123,11.3000000002)) ;
#353=CARTESIAN_POINT('Control Point',(1.65,3.05421256877,11.3000000004)) ;
#354=CARTESIAN_POINT('Control Point',(2.4353981634,2.74578743123,11.3000000005)) ;
#355=CARTESIAN_POINT('Control Point',(2.74578743123,2.4353981634,11.3000000006)) ;
#356=CARTESIAN_POINT('Control Point',(2.9,2.0426990817,11.3000000007)) ;
#357=CARTESIAN_POINT('Control Point',(2.9,1.65,11.3000000007)) ;
#366=CARTESIAN_POINT('Axis2P3D Location',(1.65,1.65,11.7)) ;
#371=CARTESIAN_POINT('Line Origine',(353555.865593,1.64999999996,353564.265593)) ;
#375=CARTESIAN_POINT('Vertex',(3.3,1.65,11.7)) ;
#378=CARTESIAN_POINT('Axis2P3D Location',(1.65,1.65,11.7)) ;
#382=CARTESIAN_POINT('Vertex',(0.,1.65,11.7)) ;
#385=CARTESIAN_POINT('Line Origine',(-353552.565593,1.65,353564.265593)) ;
#397=CARTESIAN_POINT('Axis2P3D Location',(1.65,1.65,11.7)) ;
#402=CARTESIAN_POINT('Axis2P3D Location',(1.65,1.65,11.7)) ;
#414=CARTESIAN_POINT('Axis2P3D Location',(1.65,1.65,-1.7763568394E-015)) ;
#419=CARTESIAN_POINT('Axis2P3D Location',(1.65,1.65,16.5)) ;
#423=CARTESIAN_POINT('Vertex',(3.3,1.65,16.5)) ;
#425=CARTESIAN_POINT('Vertex',(0.,1.65,16.5)) ;
#428=CARTESIAN_POINT('Line Origine',(0.,1.65,0.)) ;
#433=CARTESIAN_POINT('Line Origine',(3.3,1.65,0.)) ;
#445=CARTESIAN_POINT('Axis2P3D Location',(1.65,1.65,-1.7763568394E-015)) ;
#450=CARTESIAN_POINT('Axis2P3D Location',(1.65,1.65,16.5)) ;
#462=CARTESIAN_POINT('Axis2P3D Location',(1.65,1.65,16.5)) ;
#32=DIRECTION('Axis2P3D Direction',(0.,0.,1.)) ;
#33=DIRECTION('Axis2P3D XDirection',(-1.,0.,0.)) ;
#37=DIRECTION('Axis2P3D Direction',(0.,0.,1.)) ;
#46=DIRECTION('Vector Direction',(0.5,-6.12322300573E-017,0.866025403784)) ;
#53=DIRECTION('Axis2P3D Direction',(0.,0.,1.)) ;
#60=DIRECTION('Vector Direction',(-0.5,0.,0.866025403784)) ;
#72=DIRECTION('Axis2P3D Direction',(0.,0.,1.)) ;
#73=DIRECTION('Axis2P3D XDirection',(-1.,0.,0.)) ;
#102=DIRECTION('Axis2P3D Direction',(0.,0.,1.)) ;
#103=DIRECTION('Axis2P3D XDirection',(1.,-1.22464680551E-016,0.)) ;
#107=DIRECTION('Axis2P3D Direction',(0.,0.,1.)) ;
#119=DIRECTION('Axis2P3D Direction',(0.,0.,-1.)) ;
#120=DIRECTION('Axis2P3D XDirection',(1.,0.,0.)) ;
#124=DIRECTION('Axis2P3D Direction',(0.,0.,-1.)) ;
#133=DIRECTION('Vector Direction',(0.,0.,-1.)) ;
#138=DIRECTION('Vector Direction',(0.,0.,-1.)) ;
#150=DIRECTION('Axis2P3D Direction',(0.,0.,-1.)) ;
#151=DIRECTION('Axis2P3D XDirection',(-1.,-1.22464679915E-016,0.)) ;
#155=DIRECTION('Axis2P3D Direction',(0.,0.,-1.)) ;
#167=DIRECTION('Axis2P3D Direction',(0.,0.,1.)) ;
#168=DIRECTION('Axis2P3D XDirection',(-1.,0.,0.)) ;
#231=DIRECTION('Axis2P3D Direction',(0.,0.,-1.)) ;
#232=DIRECTION('Axis2P3D XDirection',(1.,0.,0.)) ;
#236=DIRECTION('Axis2P3D Direction',(0.,0.,-1.)) ;
#245=DIRECTION('Vector Direction',(0.,0.,-1.)) ;
#250=DIRECTION('Vector Direction',(0.,0.,-1.)) ;
#262=DIRECTION('Axis2P3D Direction',(0.,0.,-1.)) ;
#263=DIRECTION('Axis2P3D XDirection',(-1.,-1.22464679915E-016,0.)) ;
#285=DIRECTION('Axis2P3D Direction',(0.,0.,-1.)) ;
#286=DIRECTION('Axis2P3D XDirection',(1.,0.,0.)) ;
#294=DIRECTION('Axis2P3D Direction',(0.,0.,-1.)) ;
#303=DIRECTION('Axis2P3D Direction',(0.,0.,-1.)) ;
#313=DIRECTION('Axis2P3D Direction',(0.,0.,-1.)) ;
#314=DIRECTION('Axis2P3D XDirection',(1.,0.,0.)) ;
#318=DIRECTION('Axis2P3D Direction',(0.,0.,-1.)) ;
#327=DIRECTION('Vector Direction',(0.,0.,-1.)) ;
#332=DIRECTION('Vector Direction',(0.,0.,-1.)) ;
#344=DIRECTION('Axis2P3D Direction',(0.,0.,-1.)) ;
#345=DIRECTION('Axis2P3D XDirection',(-1.,-1.22464679915E-016,0.)) ;
#367=DIRECTION('Axis2P3D Direction',(0.,0.,1.)) ;
#368=DIRECTION('Axis2P3D XDirection',(-1.,0.,0.)) ;
#372=DIRECTION('Vector Direction',(0.707106781187,-8.65956395417E-017,0.707106781187)) ;
#379=DIRECTION('Axis2P3D Direction',(0.,0.,1.)) ;
#386=DIRECTION('Vector Direction',(-0.707106781187,0.,0.707106781187)) ;
#398=DIRECTION('Axis2P3D Direction',(0.,0.,1.)) ;
#399=DIRECTION('Axis2P3D XDirection',(1.,-1.22464671053E-016,0.)) ;
#403=DIRECTION('Axis2P3D Direction',(0.,0.,1.)) ;
#415=DIRECTION('Axis2P3D Direction',(0.,0.,-1.)) ;
#416=DIRECTION('Axis2P3D XDirection',(1.,0.,0.)) ;
#420=DIRECTION('Axis2P3D Direction',(0.,0.,-1.)) ;
#429=DIRECTION('Vector Direction',(0.,0.,-1.)) ;
#434=DIRECTION('Vector Direction',(0.,0.,-1.)) ;
#446=DIRECTION('Axis2P3D Direction',(0.,0.,-1.)) ;
#447=DIRECTION('Axis2P3D XDirection',(-1.,-1.22464679915E-016,0.)) ;
#451=DIRECTION('Axis2P3D Direction',(0.,0.,-1.)) ;
#463=DIRECTION('Axis2P3D Direction',(0.,0.,-1.)) ;
#464=DIRECTION('Axis2P3D XDirection',(1.,0.,0.)) ;
#8=PRODUCT_RELATED_PRODUCT_CATEGORY('part',$,(#5)) ;
#7=PRODUCT_CATEGORY('part','specification') ;
#29=STYLED_ITEM(' ',(#28),#21) ;
#28=PRESENTATION_STYLE_ASSIGNMENT((#27)) ;
#27=SURFACE_STYLE_USAGE(.BOTH.,#26) ;
#26=SURFACE_SIDE_STYLE(' ',(#25)) ;
#25=SURFACE_STYLE_FILL_AREA(#24) ;
#24=FILL_AREA_STYLE(' ',(#23)) ;
#23=FILL_AREA_STYLE_COLOUR(' ',#22) ;
#47=VECTOR('Line Direction',#46,1.) ;
#61=VECTOR('Line Direction',#60,1.) ;
#134=VECTOR('Line Direction',#133,1.) ;
#139=VECTOR('Line Direction',#138,1.) ;
#246=VECTOR('Line Direction',#245,1.) ;
#251=VECTOR('Line Direction',#250,1.) ;
#328=VECTOR('Line Direction',#327,1.) ;
#333=VECTOR('Line Direction',#332,1.) ;
#373=VECTOR('Line Direction',#372,1.) ;
#387=VECTOR('Line Direction',#386,1.) ;
#430=VECTOR('Line Direction',#429,1.) ;
#435=VECTOR('Line Direction',#434,1.) ;
#15=UNCERTAINTY_MEASURE_WITH_UNIT(LENGTH_MEASURE(0.005),#12,'distance_accuracy_value','CONFUSED CURVE UNCERTAINTY') ;
#473=SHAPE_REPRESENTATION_RELATIONSHIP(' ',' ',#19,#472) ;
#65=ORIENTED_EDGE('',*,*,#44,.F.) ;
#66=ORIENTED_EDGE('',*,*,#51,.T.) ;
#67=ORIENTED_EDGE('',*,*,#58,.T.) ;
#68=ORIENTED_EDGE('',*,*,#63,.F.) ;
#97=ORIENTED_EDGE('',*,*,#95,.T.) ;
#98=ORIENTED_EDGE('',*,*,#44,.T.) ;
#112=ORIENTED_EDGE('',*,*,#51,.F.) ;
#113=ORIENTED_EDGE('',*,*,#95,.F.) ;
#114=ORIENTED_EDGE('',*,*,#63,.T.) ;
#115=ORIENTED_EDGE('',*,*,#110,.T.) ;
#143=ORIENTED_EDGE('',*,*,#131,.T.) ;
#144=ORIENTED_EDGE('',*,*,#136,.T.) ;
#145=ORIENTED_EDGE('',*,*,#58,.F.) ;
#146=ORIENTED_EDGE('',*,*,#141,.F.) ;
#160=ORIENTED_EDGE('',*,*,#136,.F.) ;
#161=ORIENTED_EDGE('',*,*,#158,.T.) ;
#162=ORIENTED_EDGE('',*,*,#141,.T.) ;
#163=ORIENTED_EDGE('',*,*,#110,.F.) ;
#222=ORIENTED_EDGE('',*,*,#197,.T.) ;
#223=ORIENTED_EDGE('',*,*,#220,.T.) ;
#226=ORIENTED_EDGE('',*,*,#131,.F.) ;
#227=ORIENTED_EDGE('',*,*,#158,.F.) ;
#255=ORIENTED_EDGE('',*,*,#243,.T.) ;
#256=ORIENTED_EDGE('',*,*,#248,.T.) ;
#257=ORIENTED_EDGE('',*,*,#197,.F.) ;
#258=ORIENTED_EDGE('',*,*,#253,.F.) ;
#278=ORIENTED_EDGE('',*,*,#248,.F.) ;
#279=ORIENTED_EDGE('',*,*,#276,.T.) ;
#280=ORIENTED_EDGE('',*,*,#253,.T.) ;
#281=ORIENTED_EDGE('',*,*,#220,.F.) ;
#290=ORIENTED_EDGE('',*,*,#243,.F.) ;
#291=ORIENTED_EDGE('',*,*,#276,.F.) ;
#308=ORIENTED_EDGE('',*,*,#301,.T.) ;
#309=ORIENTED_EDGE('',*,*,#306,.T.) ;
#337=ORIENTED_EDGE('',*,*,#325,.T.) ;
#338=ORIENTED_EDGE('',*,*,#330,.T.) ;
#339=ORIENTED_EDGE('',*,*,#301,.F.) ;
#340=ORIENTED_EDGE('',*,*,#335,.F.) ;
#360=ORIENTED_EDGE('',*,*,#330,.F.) ;
#361=ORIENTED_EDGE('',*,*,#358,.T.) ;
#362=ORIENTED_EDGE('',*,*,#335,.T.) ;
#363=ORIENTED_EDGE('',*,*,#306,.F.) ;
#391=ORIENTED_EDGE('',*,*,#325,.F.) ;
#392=ORIENTED_EDGE('',*,*,#377,.T.) ;
#393=ORIENTED_EDGE('',*,*,#384,.T.) ;
#394=ORIENTED_EDGE('',*,*,#389,.F.) ;
#408=ORIENTED_EDGE('',*,*,#377,.F.) ;
#409=ORIENTED_EDGE('',*,*,#358,.F.) ;
#410=ORIENTED_EDGE('',*,*,#389,.T.) ;
#411=ORIENTED_EDGE('',*,*,#406,.T.) ;
#439=ORIENTED_EDGE('',*,*,#427,.T.) ;
#440=ORIENTED_EDGE('',*,*,#432,.T.) ;
#441=ORIENTED_EDGE('',*,*,#384,.F.) ;
#442=ORIENTED_EDGE('',*,*,#437,.F.) ;
#456=ORIENTED_EDGE('',*,*,#432,.F.) ;
#457=ORIENTED_EDGE('',*,*,#454,.T.) ;
#458=ORIENTED_EDGE('',*,*,#437,.T.) ;
#459=ORIENTED_EDGE('',*,*,#406,.F.) ;
#468=ORIENTED_EDGE('',*,*,#427,.F.) ;
#469=ORIENTED_EDGE('',*,*,#454,.F.) ;
#228=FACE_BOUND('',#225,.T.) ;
#310=FACE_BOUND('',#307,.T.) ;
#30=CLOSED_SHELL('Closed Shell',(#70,#100,#117,#148,#165,#229,#260,#283,#311,#342,#365,#396,#413,#444,#461,#471)) ;
#472=ADVANCED_BREP_SHAPE_REPRESENTATION('NONE',(#21),#16) ;
#70=ADVANCED_FACE('NONE',(#69),#35,.T.) ;
#100=ADVANCED_FACE('NONE',(#99),#75,.F.) ;
#117=ADVANCED_FACE('NONE',(#116),#105,.T.) ;
#148=ADVANCED_FACE('NONE',(#147),#122,.T.) ;
#165=ADVANCED_FACE('NONE',(#164),#153,.T.) ;
#229=ADVANCED_FACE('NONE',(#224,#228),#170,.F.) ;
#260=ADVANCED_FACE('NONE',(#259),#234,.T.) ;
#283=ADVANCED_FACE('NONE',(#282),#265,.T.) ;
#311=ADVANCED_FACE('NONE',(#292,#310),#288,.F.) ;
#342=ADVANCED_FACE('NONE',(#341),#316,.T.) ;
#365=ADVANCED_FACE('NONE',(#364),#347,.T.) ;
#396=ADVANCED_FACE('NONE',(#395),#370,.T.) ;
#413=ADVANCED_FACE('NONE',(#412),#401,.T.) ;
#444=ADVANCED_FACE('NONE',(#443),#418,.T.) ;
#461=ADVANCED_FACE('NONE',(#460),#449,.T.) ;
#471=ADVANCED_FACE('NONE',(#470),#466,.F.) ;
#4=APPLICATION_PROTOCOL_DEFINITION('international standard','automotive_design',2001,#1) ;
#76=B_SPLINE_CURVE_WITH_KNOTS('',5,(#77,#78,#79,#80,#81,#82,#83,#84,#85,#86,#87,#88,#89,#90,#91,#92,#93,#94),.UNSPECIFIED.,.F.,.U.,(6,3,3,3,3,6),(0.,0.450389745137,0.900779482913,1.35116921273,1.80155893946,1.87766449484),.UNSPECIFIED.) ;
#171=B_SPLINE_CURVE_WITH_KNOTS('',5,(#172,#173,#174,#175,#176,#177,#178,#179,#180,#181,#182,#183,#184,#185,#186,#187,#188,#189,#190,#191,#192),.UNSPECIFIED.,.F.,.U.,(6,3,3,3,3,3,6),(0.,1.27276333639,2.54552668005,3.81828999931,5.09105330297,6.36381661721,6.66405459642),.UNSPECIFIED.) ;
#198=B_SPLINE_CURVE_WITH_KNOTS('',5,(#199,#200,#201,#202,#203,#204,#205,#206,#207,#208,#209,#210,#211,#212,#213,#214,#215,#216,#217,#218,#219),.UNSPECIFIED.,.F.,.U.,(6,3,3,3,3,3,6),(0.,1.27276333639,2.54552668004,3.8182899993,5.09105330295,6.36381661719,6.6640545964),.UNSPECIFIED.) ;
#266=B_SPLINE_CURVE_WITH_KNOTS('',5,(#267,#268,#269,#270,#271,#272,#273,#274,#275),.UNSPECIFIED.,.F.,.U.,(6,3,6),(-2.35619449019,2.22044604925E-016,2.35619449019),.UNSPECIFIED.) ;
#348=B_SPLINE_CURVE_WITH_KNOTS('',5,(#349,#350,#351,#352,#353,#354,#355,#356,#357),.UNSPECIFIED.,.F.,.U.,(6,3,6),(-1.96349540849,1.11022302463E-016,1.96349540849),.UNSPECIFIED.) ;
#21=MANIFOLD_SOLID_BREP('NONE',#30) ;
#39=CIRCLE('generated circle',#38,0.42264973081) ;
#55=CIRCLE('generated circle',#54,1.) ;
#109=CIRCLE('generated circle',#108,1.) ;
#126=CIRCLE('generated circle',#125,1.) ;
#157=CIRCLE('generated circle',#156,1.) ;
#238=CIRCLE('generated circle',#237,1.5) ;
#296=CIRCLE('generated circle',#295,1.25) ;
#305=CIRCLE('generated circle',#304,1.25) ;
#320=CIRCLE('generated circle',#319,1.25) ;
#381=CIRCLE('generated circle',#380,1.65) ;
#405=CIRCLE('generated circle',#404,1.65) ;
#422=CIRCLE('generated circle',#421,1.65) ;
#453=CIRCLE('generated circle',#452,1.65) ;
#22=COLOUR_RGB('Colour',0.827450980392,0.698039215686,0.490196078431) ;
#35=CONICAL_SURFACE('Cone',#34,1.,0.523598775598) ;
#105=CONICAL_SURFACE('Cone',#104,1.,0.523598775598) ;
#370=CONICAL_SURFACE('Cone',#369,1.65,0.785398163397) ;
#401=CONICAL_SURFACE('Cone',#400,1.65,0.785398163397) ;
#122=CYLINDRICAL_SURFACE('generated cylinder',#121,1.) ;
#153=CYLINDRICAL_SURFACE('generated cylinder',#152,1.) ;
#234=CYLINDRICAL_SURFACE('generated cylinder',#233,1.5) ;
#265=CYLINDRICAL_SURFACE('generated cylinder',#264,1.5) ;
#316=CYLINDRICAL_SURFACE('generated cylinder',#315,1.25) ;
#347=CYLINDRICAL_SURFACE('generated cylinder',#346,1.25) ;
#418=CYLINDRICAL_SURFACE('generated cylinder',#417,1.65) ;
#449=CYLINDRICAL_SURFACE('generated cylinder',#448,1.65) ;
#44=EDGE_CURVE('',#41,#43,#39,.F.) ;
#51=EDGE_CURVE('',#41,#50,#48,.T.) ;
#58=EDGE_CURVE('',#50,#57,#55,.F.) ;
#63=EDGE_CURVE('',#43,#57,#62,.T.) ;
#95=EDGE_CURVE('',#43,#41,#76,.T.) ;
#110=EDGE_CURVE('',#57,#50,#109,.F.) ;
#131=EDGE_CURVE('',#128,#130,#126,.T.) ;
#136=EDGE_CURVE('',#130,#57,#135,.T.) ;
#141=EDGE_CURVE('',#128,#50,#140,.T.) ;
#158=EDGE_CURVE('',#130,#128,#157,.T.) ;
#197=EDGE_CURVE('',#194,#196,#171,.T.) ;
#220=EDGE_CURVE('',#196,#194,#198,.T.) ;
#243=EDGE_CURVE('',#240,#242,#238,.T.) ;
#248=EDGE_CURVE('',#242,#196,#247,.T.) ;
#253=EDGE_CURVE('',#240,#194,#252,.T.) ;
#276=EDGE_CURVE('',#242,#240,#266,.T.) ;
#301=EDGE_CURVE('',#298,#300,#296,.T.) ;
#306=EDGE_CURVE('',#300,#298,#305,.T.) ;
#325=EDGE_CURVE('',#322,#324,#320,.T.) ;
#330=EDGE_CURVE('',#324,#300,#329,.T.) ;
#335=EDGE_CURVE('',#322,#298,#334,.T.) ;
#358=EDGE_CURVE('',#324,#322,#348,.T.) ;
#377=EDGE_CURVE('',#322,#376,#374,.T.) ;
#384=EDGE_CURVE('',#376,#383,#381,.F.) ;
#389=EDGE_CURVE('',#324,#383,#388,.T.) ;
#406=EDGE_CURVE('',#383,#376,#405,.F.) ;
#427=EDGE_CURVE('',#424,#426,#422,.T.) ;
#432=EDGE_CURVE('',#426,#383,#431,.T.) ;
#437=EDGE_CURVE('',#424,#376,#436,.T.) ;
#454=EDGE_CURVE('',#426,#424,#453,.T.) ;
#64=EDGE_LOOP('',(#65,#66,#67,#68)) ;
#96=EDGE_LOOP('',(#97,#98)) ;
#111=EDGE_LOOP('',(#112,#113,#114,#115)) ;
#142=EDGE_LOOP('',(#143,#144,#145,#146)) ;
#159=EDGE_LOOP('',(#160,#161,#162,#163)) ;
#221=EDGE_LOOP('',(#222,#223)) ;
#225=EDGE_LOOP('',(#226,#227)) ;
#254=EDGE_LOOP('',(#255,#256,#257,#258)) ;
#277=EDGE_LOOP('',(#278,#279,#280,#281)) ;
#289=EDGE_LOOP('',(#290,#291)) ;
#307=EDGE_LOOP('',(#308,#309)) ;
#336=EDGE_LOOP('',(#337,#338,#339,#340)) ;
#359=EDGE_LOOP('',(#360,#361,#362,#363)) ;
#390=EDGE_LOOP('',(#391,#392,#393,#394)) ;
#407=EDGE_LOOP('',(#408,#409,#410,#411)) ;
#438=EDGE_LOOP('',(#439,#440,#441,#442)) ;
#455=EDGE_LOOP('',(#456,#457,#458,#459)) ;
#467=EDGE_LOOP('',(#468,#469)) ;
#69=FACE_OUTER_BOUND('',#64,.T.) ;
#99=FACE_OUTER_BOUND('',#96,.T.) ;
#116=FACE_OUTER_BOUND('',#111,.T.) ;
#147=FACE_OUTER_BOUND('',#142,.T.) ;
#164=FACE_OUTER_BOUND('',#159,.T.) ;
#224=FACE_OUTER_BOUND('',#221,.T.) ;
#259=FACE_OUTER_BOUND('',#254,.T.) ;
#282=FACE_OUTER_BOUND('',#277,.T.) ;
#292=FACE_OUTER_BOUND('',#289,.T.) ;
#341=FACE_OUTER_BOUND('',#336,.T.) ;
#364=FACE_OUTER_BOUND('',#359,.T.) ;
#395=FACE_OUTER_BOUND('',#390,.T.) ;
#412=FACE_OUTER_BOUND('',#407,.T.) ;
#443=FACE_OUTER_BOUND('',#438,.T.) ;
#460=FACE_OUTER_BOUND('',#455,.T.) ;
#470=FACE_OUTER_BOUND('',#467,.T.) ;
#48=LINE('Line',#45,#47) ;
#62=LINE('Line',#59,#61) ;
#135=LINE('Line',#132,#134) ;
#140=LINE('Line',#137,#139) ;
#247=LINE('Line',#244,#246) ;
#252=LINE('Line',#249,#251) ;
#329=LINE('Line',#326,#328) ;
#334=LINE('Line',#331,#333) ;
#374=LINE('Line',#371,#373) ;
#388=LINE('Line',#385,#387) ;
#431=LINE('Line',#428,#430) ;
#436=LINE('Line',#433,#435) ;
#75=PLANE('',#74) ;
#170=PLANE('',#169) ;
#288=PLANE('',#287) ;
#466=PLANE('',#465) ;
#9=PRODUCT_CATEGORY_RELATIONSHIP(' ',' ',#7,#8) ;
#6=PRODUCT_DEFINITION_FORMATION_WITH_SPECIFIED_SOURCE('',' ',#5,.NOT_KNOWN.) ;
#20=SHAPE_DEFINITION_REPRESENTATION(#11,#19) ;
#41=VERTEX_POINT('',#40) ;
#43=VERTEX_POINT('',#42) ;
#50=VERTEX_POINT('',#49) ;
#57=VERTEX_POINT('',#56) ;
#128=VERTEX_POINT('',#127) ;
#130=VERTEX_POINT('',#129) ;
#194=VERTEX_POINT('',#193) ;
#196=VERTEX_POINT('',#195) ;
#240=VERTEX_POINT('',#239) ;
#242=VERTEX_POINT('',#241) ;
#298=VERTEX_POINT('',#297) ;
#300=VERTEX_POINT('',#299) ;
#322=VERTEX_POINT('',#321) ;
#324=VERTEX_POINT('',#323) ;
#376=VERTEX_POINT('',#375) ;
#383=VERTEX_POINT('',#382) ;
#424=VERTEX_POINT('',#423) ;
#426=VERTEX_POINT('',#425) ;
#12=(LENGTH_UNIT()NAMED_UNIT(*)SI_UNIT(.MILLI.,.METRE.)) ;
#13=(NAMED_UNIT(*)PLANE_ANGLE_UNIT()SI_UNIT($,.RADIAN.)) ;
#14=(NAMED_UNIT(*)SI_UNIT($,.STERADIAN.)SOLID_ANGLE_UNIT()) ;
#16=(GEOMETRIC_REPRESENTATION_CONTEXT(3)GLOBAL_UNCERTAINTY_ASSIGNED_CONTEXT((#15))GLOBAL_UNIT_ASSIGNED_CONTEXT((#12,#13,#14))REPRESENTATION_CONTEXT(' ',' ')) ;
ENDSEC;
END-ISO-10303-21;
