ISO-10303-21;
HEADER;
FILE_DESCRIPTION(('CATIA V5 STEP Exchange','CAx-IF Rec.Pracs.--- Model Styling and Organization---1.4--- 2014-01-23'),'2;1');

FILE_NAME ('002082-2_0_0470800000_0470800000_S.stp','2021-05-07T10:26:03+00:00',('none'),('Weidmueller'),'CATIA Version 5-6 Release 2016 SP3 HF44','CATIA V5 STEP AP214','none');

FILE_SCHEMA(('AUTOMOTIVE_DESIGN { 1 0 10303 214 1 1 1 1 }'));

ENDSEC;
DATA;
#5=PRODUCT('QL 3 SAK16','','QUERVERBINDUNGSLASCHE',(#2)) ;
#2=PRODUCT_CONTEXT(' ',#1,'mechanical') ;
#1=APPLICATION_CONTEXT('automotive design') ;
#10=PRODUCT_DEFINITION('',' ',#6,#3) ;
#3=PRODUCT_DEFINITION_CONTEXT('part definition',#1,' ') ;
#11=PRODUCT_DEFINITION_SHAPE(' ',' ',#10) ;
#388=MECHANICAL_DESIGN_GEOMETRIC_PRESENTATION_REPRESENTATION(' ',(#29),#16) ;
#389=MECHANICAL_DESIGN_GEOMETRIC_PRESENTATION_REPRESENTATION(' ',(#385),#16) ;
#19=SHAPE_REPRESENTATION(' ',(#18),#16) ;
#18=AXIS2_PLACEMENT_3D(' ',#17,$,$) ;
#35=AXIS2_PLACEMENT_3D('Cylinder Axis2P3D',#32,#33,#34) ;
#39=AXIS2_PLACEMENT_3D('Circle Axis2P3D',#37,#38,$) ;
#55=AXIS2_PLACEMENT_3D('Circle Axis2P3D',#53,#54,$) ;
#74=AXIS2_PLACEMENT_3D('Circle Axis2P3D',#72,#73,$) ;
#79=AXIS2_PLACEMENT_3D('Circle Axis2P3D',#77,#78,$) ;
#92=AXIS2_PLACEMENT_3D('Plane Axis2P3D',#89,#90,#91) ;
#132=AXIS2_PLACEMENT_3D('Plane Axis2P3D',#129,#130,#131) ;
#163=AXIS2_PLACEMENT_3D('Plane Axis2P3D',#160,#161,#162) ;
#194=AXIS2_PLACEMENT_3D('Plane Axis2P3D',#191,#192,#193) ;
#216=AXIS2_PLACEMENT_3D('Plane Axis2P3D',#213,#214,#215) ;
#230=AXIS2_PLACEMENT_3D('Circle Axis2P3D',#228,#229,$) ;
#239=AXIS2_PLACEMENT_3D('Circle Axis2P3D',#237,#238,$) ;
#248=AXIS2_PLACEMENT_3D('Circle Axis2P3D',#246,#247,$) ;
#257=AXIS2_PLACEMENT_3D('Circle Axis2P3D',#255,#256,$) ;
#268=AXIS2_PLACEMENT_3D('Plane Axis2P3D',#265,#266,#267) ;
#282=AXIS2_PLACEMENT_3D('Circle Axis2P3D',#280,#281,$) ;
#291=AXIS2_PLACEMENT_3D('Circle Axis2P3D',#289,#290,$) ;
#300=AXIS2_PLACEMENT_3D('Circle Axis2P3D',#298,#299,$) ;
#309=AXIS2_PLACEMENT_3D('Circle Axis2P3D',#307,#308,$) ;
#320=AXIS2_PLACEMENT_3D('Cylinder Axis2P3D',#317,#318,#319) ;
#349=AXIS2_PLACEMENT_3D('Cylinder Axis2P3D',#346,#347,#348) ;
#380=AXIS2_PLACEMENT_3D('Axis System.1',#377,#378,#379) ;
#17=CARTESIAN_POINT(' ',(0.,0.,0.)) ;
#32=CARTESIAN_POINT('Axis2P3D Location',(3.,3.,1.9)) ;
#37=CARTESIAN_POINT('Axis2P3D Location',(3.,3.,2.)) ;
#41=CARTESIAN_POINT('Vertex',(4.49189035521,2.18497658437,2.)) ;
#43=CARTESIAN_POINT('Vertex',(1.50810964479,3.81502341563,2.)) ;
#46=CARTESIAN_POINT('Line Origine',(1.50810964479,3.81502341563,1.15500000002)) ;
#50=CARTESIAN_POINT('Vertex',(1.50810964479,3.81502341563,0.)) ;
#53=CARTESIAN_POINT('Axis2P3D Location',(3.,3.,0.)) ;
#57=CARTESIAN_POINT('Vertex',(4.49189035521,2.18497658437,0.)) ;
#60=CARTESIAN_POINT('Line Origine',(4.49189035521,2.18497658437,1.15500000002)) ;
#72=CARTESIAN_POINT('Axis2P3D Location',(3.,3.,2.)) ;
#77=CARTESIAN_POINT('Axis2P3D Location',(3.,3.,0.)) ;
#89=CARTESIAN_POINT('Axis2P3D Location',(0.,6.,0.)) ;
#94=CARTESIAN_POINT('Line Origine',(0.,6.,1.)) ;
#98=CARTESIAN_POINT('Vertex',(-3.5527136788E-015,6.,0.)) ;
#100=CARTESIAN_POINT('Vertex',(-3.5527136788E-015,6.,2.)) ;
#103=CARTESIAN_POINT('Line Origine',(0.,3.,0.)) ;
#107=CARTESIAN_POINT('Vertex',(0.,0.,0.)) ;
#110=CARTESIAN_POINT('Line Origine',(0.,0.,1.)) ;
#114=CARTESIAN_POINT('Vertex',(0.,0.,2.)) ;
#117=CARTESIAN_POINT('Line Origine',(0.,3.,2.)) ;
#129=CARTESIAN_POINT('Axis2P3D Location',(29.8,6.,0.)) ;
#134=CARTESIAN_POINT('Line Origine',(29.8,6.,1.)) ;
#138=CARTESIAN_POINT('Vertex',(29.8,6.,0.)) ;
#140=CARTESIAN_POINT('Vertex',(29.8,6.,2.)) ;
#143=CARTESIAN_POINT('Line Origine',(14.9,6.,0.)) ;
#148=CARTESIAN_POINT('Line Origine',(14.9,6.,2.)) ;
#160=CARTESIAN_POINT('Axis2P3D Location',(29.8,-4.59193501366E-015,0.)) ;
#165=CARTESIAN_POINT('Line Origine',(29.8,-4.59193501366E-015,1.)) ;
#169=CARTESIAN_POINT('Vertex',(29.8,0.,0.)) ;
#171=CARTESIAN_POINT('Vertex',(29.8,0.,2.)) ;
#174=CARTESIAN_POINT('Line Origine',(29.8,3.,0.)) ;
#179=CARTESIAN_POINT('Line Origine',(29.8,3.,2.)) ;
#191=CARTESIAN_POINT('Axis2P3D Location',(0.,0.,0.)) ;
#196=CARTESIAN_POINT('Line Origine',(14.9,0.,0.)) ;
#201=CARTESIAN_POINT('Line Origine',(14.9,0.,2.)) ;
#213=CARTESIAN_POINT('Axis2P3D Location',(0.,0.,2.)) ;
#228=CARTESIAN_POINT('Axis2P3D Location',(14.9,3.,2.)) ;
#232=CARTESIAN_POINT('Vertex',(16.3918903552,2.18497658437,2.)) ;
#234=CARTESIAN_POINT('Vertex',(13.4081096448,3.81502341563,2.)) ;
#237=CARTESIAN_POINT('Axis2P3D Location',(14.9,3.,2.)) ;
#246=CARTESIAN_POINT('Axis2P3D Location',(26.8,3.,2.)) ;
#250=CARTESIAN_POINT('Vertex',(28.2918903552,2.18497658437,2.)) ;
#252=CARTESIAN_POINT('Vertex',(25.3081096448,3.81502341563,2.)) ;
#255=CARTESIAN_POINT('Axis2P3D Location',(26.8,3.,2.)) ;
#265=CARTESIAN_POINT('Axis2P3D Location',(0.,0.,0.)) ;
#280=CARTESIAN_POINT('Axis2P3D Location',(14.9,3.,0.)) ;
#284=CARTESIAN_POINT('Vertex',(13.4081096448,3.81502341563,0.)) ;
#286=CARTESIAN_POINT('Vertex',(16.3918903552,2.18497658437,0.)) ;
#289=CARTESIAN_POINT('Axis2P3D Location',(14.9,3.,0.)) ;
#298=CARTESIAN_POINT('Axis2P3D Location',(26.8,3.,0.)) ;
#302=CARTESIAN_POINT('Vertex',(25.3081096448,3.81502341563,0.)) ;
#304=CARTESIAN_POINT('Vertex',(28.2918903552,2.18497658437,0.)) ;
#307=CARTESIAN_POINT('Axis2P3D Location',(26.8,3.,0.)) ;
#317=CARTESIAN_POINT('Axis2P3D Location',(26.8,3.,1.9)) ;
#322=CARTESIAN_POINT('Line Origine',(25.3081096448,3.81502341563,1.15500000002)) ;
#327=CARTESIAN_POINT('Line Origine',(28.2918903552,2.18497658437,1.15500000002)) ;
#346=CARTESIAN_POINT('Axis2P3D Location',(14.9,3.,1.9)) ;
#351=CARTESIAN_POINT('Line Origine',(13.4081096448,3.81502341563,1.15500000002)) ;
#356=CARTESIAN_POINT('Line Origine',(16.3918903552,2.18497658437,1.15500000002)) ;
#377=CARTESIAN_POINT('Axis2P3D Location',(0.,0.,0.)) ;
#33=DIRECTION('Axis2P3D Direction',(0.,-0.,-1.)) ;
#34=DIRECTION('Axis2P3D XDirection',(0.87758256189,-0.479425538604,0.)) ;
#38=DIRECTION('Axis2P3D Direction',(0.,-0.,-1.)) ;
#47=DIRECTION('Vector Direction',(0.,0.,-1.)) ;
#54=DIRECTION('Axis2P3D Direction',(0.,-0.,-1.)) ;
#61=DIRECTION('Vector Direction',(0.,0.,-1.)) ;
#73=DIRECTION('Axis2P3D Direction',(0.,-0.,-1.)) ;
#78=DIRECTION('Axis2P3D Direction',(0.,-0.,-1.)) ;
#90=DIRECTION('Axis2P3D Direction',(-1.,0.,0.)) ;
#91=DIRECTION('Axis2P3D XDirection',(0.,-1.,0.)) ;
#95=DIRECTION('Vector Direction',(0.,0.,1.)) ;
#104=DIRECTION('Vector Direction',(0.,-1.,0.)) ;
#111=DIRECTION('Vector Direction',(0.,0.,1.)) ;
#118=DIRECTION('Vector Direction',(0.,-1.,0.)) ;
#130=DIRECTION('Axis2P3D Direction',(0.,1.,-0.)) ;
#131=DIRECTION('Axis2P3D XDirection',(-1.,0.,0.)) ;
#135=DIRECTION('Vector Direction',(0.,0.,1.)) ;
#144=DIRECTION('Vector Direction',(-1.,0.,0.)) ;
#149=DIRECTION('Vector Direction',(-1.,0.,0.)) ;
#161=DIRECTION('Axis2P3D Direction',(1.,0.,0.)) ;
#162=DIRECTION('Axis2P3D XDirection',(0.,1.,0.)) ;
#166=DIRECTION('Vector Direction',(0.,0.,1.)) ;
#175=DIRECTION('Vector Direction',(0.,1.,0.)) ;
#180=DIRECTION('Vector Direction',(0.,1.,0.)) ;
#192=DIRECTION('Axis2P3D Direction',(0.,-1.,0.)) ;
#193=DIRECTION('Axis2P3D XDirection',(1.,0.,0.)) ;
#197=DIRECTION('Vector Direction',(1.,0.,0.)) ;
#202=DIRECTION('Vector Direction',(1.,0.,0.)) ;
#214=DIRECTION('Axis2P3D Direction',(0.,0.,1.)) ;
#215=DIRECTION('Axis2P3D XDirection',(1.,0.,0.)) ;
#229=DIRECTION('Axis2P3D Direction',(0.,0.,1.)) ;
#238=DIRECTION('Axis2P3D Direction',(0.,0.,1.)) ;
#247=DIRECTION('Axis2P3D Direction',(0.,0.,1.)) ;
#256=DIRECTION('Axis2P3D Direction',(0.,0.,1.)) ;
#266=DIRECTION('Axis2P3D Direction',(0.,0.,1.)) ;
#267=DIRECTION('Axis2P3D XDirection',(1.,0.,0.)) ;
#281=DIRECTION('Axis2P3D Direction',(0.,0.,1.)) ;
#290=DIRECTION('Axis2P3D Direction',(0.,0.,1.)) ;
#299=DIRECTION('Axis2P3D Direction',(0.,0.,1.)) ;
#308=DIRECTION('Axis2P3D Direction',(0.,0.,1.)) ;
#318=DIRECTION('Axis2P3D Direction',(0.,0.,-1.)) ;
#319=DIRECTION('Axis2P3D XDirection',(0.87758256189,-0.479425538604,0.)) ;
#323=DIRECTION('Vector Direction',(0.,0.,-1.)) ;
#328=DIRECTION('Vector Direction',(0.,0.,-1.)) ;
#347=DIRECTION('Axis2P3D Direction',(0.,0.,-1.)) ;
#348=DIRECTION('Axis2P3D XDirection',(0.87758256189,-0.479425538604,0.)) ;
#352=DIRECTION('Vector Direction',(0.,0.,-1.)) ;
#357=DIRECTION('Vector Direction',(0.,0.,-1.)) ;
#378=DIRECTION('Axis2P3D Direction',(0.,0.,1.)) ;
#379=DIRECTION('Axis2P3D XDirection',(1.,0.,0.)) ;
#30=PRESENTATION_LAYER_ASSIGNMENT('1',' ',(#21)) ;
#8=PRODUCT_RELATED_PRODUCT_CATEGORY('part',$,(#5)) ;
#7=PRODUCT_CATEGORY('part','specification') ;
#29=STYLED_ITEM(' ',(#28),#21) ;
#385=STYLED_ITEM(' ',(#384),#380) ;
#28=PRESENTATION_STYLE_ASSIGNMENT((#27)) ;
#384=PRESENTATION_STYLE_ASSIGNMENT((#383)) ;
#383=CURVE_STYLE(' ',#381,POSITIVE_LENGTH_MEASURE(0.129999995232),#382) ;
#27=SURFACE_STYLE_USAGE(.BOTH.,#26) ;
#26=SURFACE_SIDE_STYLE(' ',(#25)) ;
#25=SURFACE_STYLE_FILL_AREA(#24) ;
#24=FILL_AREA_STYLE(' ',(#23)) ;
#23=FILL_AREA_STYLE_COLOUR(' ',#22) ;
#48=VECTOR('Line Direction',#47,1.) ;
#62=VECTOR('Line Direction',#61,1.) ;
#96=VECTOR('Line Direction',#95,1.) ;
#105=VECTOR('Line Direction',#104,1.) ;
#112=VECTOR('Line Direction',#111,1.) ;
#119=VECTOR('Line Direction',#118,1.) ;
#136=VECTOR('Line Direction',#135,1.) ;
#145=VECTOR('Line Direction',#144,1.) ;
#150=VECTOR('Line Direction',#149,1.) ;
#167=VECTOR('Line Direction',#166,1.) ;
#176=VECTOR('Line Direction',#175,1.) ;
#181=VECTOR('Line Direction',#180,1.) ;
#198=VECTOR('Line Direction',#197,1.) ;
#203=VECTOR('Line Direction',#202,1.) ;
#324=VECTOR('Line Direction',#323,1.) ;
#329=VECTOR('Line Direction',#328,1.) ;
#353=VECTOR('Line Direction',#352,1.) ;
#358=VECTOR('Line Direction',#357,1.) ;
#15=UNCERTAINTY_MEASURE_WITH_UNIT(LENGTH_MEASURE(0.005),#12,'distance_accuracy_value','CONFUSED CURVE UNCERTAINTY') ;
#376=SHAPE_REPRESENTATION_RELATIONSHIP(' ',' ',#19,#375) ;
#66=ORIENTED_EDGE('',*,*,#45,.T.) ;
#67=ORIENTED_EDGE('',*,*,#52,.F.) ;
#68=ORIENTED_EDGE('',*,*,#59,.T.) ;
#69=ORIENTED_EDGE('',*,*,#64,.T.) ;
#83=ORIENTED_EDGE('',*,*,#76,.T.) ;
#84=ORIENTED_EDGE('',*,*,#64,.F.) ;
#85=ORIENTED_EDGE('',*,*,#81,.T.) ;
#86=ORIENTED_EDGE('',*,*,#52,.T.) ;
#123=ORIENTED_EDGE('',*,*,#102,.F.) ;
#124=ORIENTED_EDGE('',*,*,#109,.T.) ;
#125=ORIENTED_EDGE('',*,*,#116,.T.) ;
#126=ORIENTED_EDGE('',*,*,#121,.F.) ;
#154=ORIENTED_EDGE('',*,*,#142,.F.) ;
#155=ORIENTED_EDGE('',*,*,#147,.T.) ;
#156=ORIENTED_EDGE('',*,*,#102,.T.) ;
#157=ORIENTED_EDGE('',*,*,#152,.F.) ;
#185=ORIENTED_EDGE('',*,*,#173,.F.) ;
#186=ORIENTED_EDGE('',*,*,#178,.T.) ;
#187=ORIENTED_EDGE('',*,*,#142,.T.) ;
#188=ORIENTED_EDGE('',*,*,#183,.F.) ;
#207=ORIENTED_EDGE('',*,*,#116,.F.) ;
#208=ORIENTED_EDGE('',*,*,#200,.T.) ;
#209=ORIENTED_EDGE('',*,*,#173,.T.) ;
#210=ORIENTED_EDGE('',*,*,#205,.F.) ;
#219=ORIENTED_EDGE('',*,*,#205,.T.) ;
#220=ORIENTED_EDGE('',*,*,#183,.T.) ;
#221=ORIENTED_EDGE('',*,*,#152,.T.) ;
#222=ORIENTED_EDGE('',*,*,#121,.T.) ;
#225=ORIENTED_EDGE('',*,*,#76,.F.) ;
#226=ORIENTED_EDGE('',*,*,#45,.F.) ;
#243=ORIENTED_EDGE('',*,*,#236,.F.) ;
#244=ORIENTED_EDGE('',*,*,#241,.F.) ;
#261=ORIENTED_EDGE('',*,*,#254,.F.) ;
#262=ORIENTED_EDGE('',*,*,#259,.F.) ;
#271=ORIENTED_EDGE('',*,*,#109,.F.) ;
#272=ORIENTED_EDGE('',*,*,#147,.F.) ;
#273=ORIENTED_EDGE('',*,*,#178,.F.) ;
#274=ORIENTED_EDGE('',*,*,#200,.F.) ;
#277=ORIENTED_EDGE('',*,*,#81,.F.) ;
#278=ORIENTED_EDGE('',*,*,#59,.F.) ;
#295=ORIENTED_EDGE('',*,*,#288,.F.) ;
#296=ORIENTED_EDGE('',*,*,#293,.F.) ;
#313=ORIENTED_EDGE('',*,*,#306,.F.) ;
#314=ORIENTED_EDGE('',*,*,#311,.F.) ;
#333=ORIENTED_EDGE('',*,*,#254,.T.) ;
#334=ORIENTED_EDGE('',*,*,#326,.F.) ;
#335=ORIENTED_EDGE('',*,*,#306,.T.) ;
#336=ORIENTED_EDGE('',*,*,#331,.T.) ;
#340=ORIENTED_EDGE('',*,*,#259,.T.) ;
#341=ORIENTED_EDGE('',*,*,#331,.F.) ;
#342=ORIENTED_EDGE('',*,*,#311,.T.) ;
#343=ORIENTED_EDGE('',*,*,#326,.T.) ;
#362=ORIENTED_EDGE('',*,*,#236,.T.) ;
#363=ORIENTED_EDGE('',*,*,#355,.F.) ;
#364=ORIENTED_EDGE('',*,*,#288,.T.) ;
#365=ORIENTED_EDGE('',*,*,#360,.T.) ;
#369=ORIENTED_EDGE('',*,*,#241,.T.) ;
#370=ORIENTED_EDGE('',*,*,#360,.F.) ;
#371=ORIENTED_EDGE('',*,*,#293,.T.) ;
#372=ORIENTED_EDGE('',*,*,#355,.T.) ;
#227=FACE_BOUND('',#224,.T.) ;
#245=FACE_BOUND('',#242,.T.) ;
#263=FACE_BOUND('',#260,.T.) ;
#279=FACE_BOUND('',#276,.T.) ;
#297=FACE_BOUND('',#294,.T.) ;
#315=FACE_BOUND('',#312,.T.) ;
#31=CLOSED_SHELL('Closed Shell',(#71,#88,#128,#159,#190,#212,#264,#316,#338,#345,#367,#374)) ;
#375=ADVANCED_BREP_SHAPE_REPRESENTATION('NONE',(#21),#16) ;
#71=ADVANCED_FACE('Body.3',(#70),#36,.F.) ;
#88=ADVANCED_FACE('Body.3',(#87),#36,.F.) ;
#128=ADVANCED_FACE('Body.3',(#127),#93,.T.) ;
#159=ADVANCED_FACE('Body.3',(#158),#133,.T.) ;
#190=ADVANCED_FACE('Body.3',(#189),#164,.T.) ;
#212=ADVANCED_FACE('Body.3',(#211),#195,.T.) ;
#264=ADVANCED_FACE('Body.3',(#223,#227,#245,#263),#217,.T.) ;
#316=ADVANCED_FACE('Body.3',(#275,#279,#297,#315),#269,.F.) ;
#338=ADVANCED_FACE('Body.3',(#337),#321,.F.) ;
#345=ADVANCED_FACE('Body.3',(#344),#321,.F.) ;
#367=ADVANCED_FACE('Body.3',(#366),#350,.F.) ;
#374=ADVANCED_FACE('Body.3',(#373),#350,.F.) ;
#4=APPLICATION_PROTOCOL_DEFINITION('international standard','automotive_design',2001,#1) ;
#21=MANIFOLD_SOLID_BREP('Body.3',#31) ;
#40=CIRCLE('generated circle',#39,1.7) ;
#56=CIRCLE('generated circle',#55,1.7) ;
#75=CIRCLE('generated circle',#74,1.7) ;
#80=CIRCLE('generated circle',#79,1.7) ;
#231=CIRCLE('generated circle',#230,1.7) ;
#240=CIRCLE('generated circle',#239,1.7) ;
#249=CIRCLE('generated circle',#248,1.7) ;
#258=CIRCLE('generated circle',#257,1.7) ;
#283=CIRCLE('generated circle',#282,1.7) ;
#292=CIRCLE('generated circle',#291,1.7) ;
#301=CIRCLE('generated circle',#300,1.7) ;
#310=CIRCLE('generated circle',#309,1.7) ;
#22=COLOUR_RGB('Colour',0.823529411765,0.823529411765,1.) ;
#386=CONSTRUCTIVE_GEOMETRY_REPRESENTATION('supplemental geometry',(#380),#16) ;
#387=CONSTRUCTIVE_GEOMETRY_REPRESENTATION_RELATIONSHIP('supplemental geometry','',#19,#386) ;
#36=CYLINDRICAL_SURFACE('generated cylinder',#35,1.7) ;
#321=CYLINDRICAL_SURFACE('generated cylinder',#320,1.7) ;
#350=CYLINDRICAL_SURFACE('generated cylinder',#349,1.7) ;
#382=DRAUGHTING_PRE_DEFINED_COLOUR('white') ;
#381=DRAUGHTING_PRE_DEFINED_CURVE_FONT('continuous') ;
#45=EDGE_CURVE('',#42,#44,#40,.F.) ;
#52=EDGE_CURVE('',#51,#44,#49,.F.) ;
#59=EDGE_CURVE('',#51,#58,#56,.T.) ;
#64=EDGE_CURVE('',#58,#42,#63,.F.) ;
#76=EDGE_CURVE('',#44,#42,#75,.F.) ;
#81=EDGE_CURVE('',#58,#51,#80,.T.) ;
#102=EDGE_CURVE('',#99,#101,#97,.T.) ;
#109=EDGE_CURVE('',#99,#108,#106,.T.) ;
#116=EDGE_CURVE('',#108,#115,#113,.T.) ;
#121=EDGE_CURVE('',#101,#115,#120,.T.) ;
#142=EDGE_CURVE('',#139,#141,#137,.T.) ;
#147=EDGE_CURVE('',#139,#99,#146,.T.) ;
#152=EDGE_CURVE('',#141,#101,#151,.T.) ;
#173=EDGE_CURVE('',#170,#172,#168,.T.) ;
#178=EDGE_CURVE('',#170,#139,#177,.T.) ;
#183=EDGE_CURVE('',#172,#141,#182,.T.) ;
#200=EDGE_CURVE('',#108,#170,#199,.T.) ;
#205=EDGE_CURVE('',#115,#172,#204,.T.) ;
#236=EDGE_CURVE('',#233,#235,#231,.T.) ;
#241=EDGE_CURVE('',#235,#233,#240,.T.) ;
#254=EDGE_CURVE('',#251,#253,#249,.T.) ;
#259=EDGE_CURVE('',#253,#251,#258,.T.) ;
#288=EDGE_CURVE('',#285,#287,#283,.F.) ;
#293=EDGE_CURVE('',#287,#285,#292,.F.) ;
#306=EDGE_CURVE('',#303,#305,#301,.F.) ;
#311=EDGE_CURVE('',#305,#303,#310,.F.) ;
#326=EDGE_CURVE('',#303,#253,#325,.F.) ;
#331=EDGE_CURVE('',#305,#251,#330,.F.) ;
#355=EDGE_CURVE('',#285,#235,#354,.F.) ;
#360=EDGE_CURVE('',#287,#233,#359,.F.) ;
#65=EDGE_LOOP('',(#66,#67,#68,#69)) ;
#82=EDGE_LOOP('',(#83,#84,#85,#86)) ;
#122=EDGE_LOOP('',(#123,#124,#125,#126)) ;
#153=EDGE_LOOP('',(#154,#155,#156,#157)) ;
#184=EDGE_LOOP('',(#185,#186,#187,#188)) ;
#206=EDGE_LOOP('',(#207,#208,#209,#210)) ;
#218=EDGE_LOOP('',(#219,#220,#221,#222)) ;
#224=EDGE_LOOP('',(#225,#226)) ;
#242=EDGE_LOOP('',(#243,#244)) ;
#260=EDGE_LOOP('',(#261,#262)) ;
#270=EDGE_LOOP('',(#271,#272,#273,#274)) ;
#276=EDGE_LOOP('',(#277,#278)) ;
#294=EDGE_LOOP('',(#295,#296)) ;
#312=EDGE_LOOP('',(#313,#314)) ;
#332=EDGE_LOOP('',(#333,#334,#335,#336)) ;
#339=EDGE_LOOP('',(#340,#341,#342,#343)) ;
#361=EDGE_LOOP('',(#362,#363,#364,#365)) ;
#368=EDGE_LOOP('',(#369,#370,#371,#372)) ;
#70=FACE_OUTER_BOUND('',#65,.T.) ;
#87=FACE_OUTER_BOUND('',#82,.T.) ;
#127=FACE_OUTER_BOUND('',#122,.T.) ;
#158=FACE_OUTER_BOUND('',#153,.T.) ;
#189=FACE_OUTER_BOUND('',#184,.T.) ;
#211=FACE_OUTER_BOUND('',#206,.T.) ;
#223=FACE_OUTER_BOUND('',#218,.T.) ;
#275=FACE_OUTER_BOUND('',#270,.T.) ;
#337=FACE_OUTER_BOUND('',#332,.T.) ;
#344=FACE_OUTER_BOUND('',#339,.T.) ;
#366=FACE_OUTER_BOUND('',#361,.T.) ;
#373=FACE_OUTER_BOUND('',#368,.T.) ;
#49=LINE('Line',#46,#48) ;
#63=LINE('Line',#60,#62) ;
#97=LINE('Line',#94,#96) ;
#106=LINE('Line',#103,#105) ;
#113=LINE('Line',#110,#112) ;
#120=LINE('Line',#117,#119) ;
#137=LINE('Line',#134,#136) ;
#146=LINE('Line',#143,#145) ;
#151=LINE('Line',#148,#150) ;
#168=LINE('Line',#165,#167) ;
#177=LINE('Line',#174,#176) ;
#182=LINE('Line',#179,#181) ;
#199=LINE('Line',#196,#198) ;
#204=LINE('Line',#201,#203) ;
#325=LINE('Line',#322,#324) ;
#330=LINE('Line',#327,#329) ;
#354=LINE('Line',#351,#353) ;
#359=LINE('Line',#356,#358) ;
#93=PLANE('',#92) ;
#133=PLANE('',#132) ;
#164=PLANE('',#163) ;
#195=PLANE('',#194) ;
#217=PLANE('',#216) ;
#269=PLANE('',#268) ;
#9=PRODUCT_CATEGORY_RELATIONSHIP(' ',' ',#7,#8) ;
#6=PRODUCT_DEFINITION_FORMATION_WITH_SPECIFIED_SOURCE('',' ',#5,.NOT_KNOWN.) ;
#20=SHAPE_DEFINITION_REPRESENTATION(#11,#19) ;
#42=VERTEX_POINT('',#41) ;
#44=VERTEX_POINT('',#43) ;
#51=VERTEX_POINT('',#50) ;
#58=VERTEX_POINT('',#57) ;
#99=VERTEX_POINT('',#98) ;
#101=VERTEX_POINT('',#100) ;
#108=VERTEX_POINT('',#107) ;
#115=VERTEX_POINT('',#114) ;
#139=VERTEX_POINT('',#138) ;
#141=VERTEX_POINT('',#140) ;
#170=VERTEX_POINT('',#169) ;
#172=VERTEX_POINT('',#171) ;
#233=VERTEX_POINT('',#232) ;
#235=VERTEX_POINT('',#234) ;
#251=VERTEX_POINT('',#250) ;
#253=VERTEX_POINT('',#252) ;
#285=VERTEX_POINT('',#284) ;
#287=VERTEX_POINT('',#286) ;
#303=VERTEX_POINT('',#302) ;
#305=VERTEX_POINT('',#304) ;
#12=(LENGTH_UNIT()NAMED_UNIT(*)SI_UNIT(.MILLI.,.METRE.)) ;
#13=(NAMED_UNIT(*)PLANE_ANGLE_UNIT()SI_UNIT($,.RADIAN.)) ;
#14=(NAMED_UNIT(*)SI_UNIT($,.STERADIAN.)SOLID_ANGLE_UNIT()) ;
#16=(GEOMETRIC_REPRESENTATION_CONTEXT(3)GLOBAL_UNCERTAINTY_ASSIGNED_CONTEXT((#15))GLOBAL_UNIT_ASSIGNED_CONTEXT((#12,#13,#14))REPRESENTATION_CONTEXT(' ',' ')) ;
ENDSEC;
END-ISO-10303-21;
