ISO-10303-21;
HEADER;
FILE_DESCRIPTION(('CATIA V5 STEP Exchange','CAx-IF Rec.Pracs.--- Model Styling and Organization---1.5--- 2016-08-15','CAx-IF Rec.Pracs.---Supplemental Geometry---1.0---2011-11-01','CAx-IF Rec.Pracs.--- Composite Materials ---1.1---2010-07-15'),'2;1');

FILE_NAME ('1173458-1_0_2708610000_2708610000.stp','2024-06-14T12:36:28+00:00',('none'),('Weidmueller'),'CATIA Version 5-6 Release 2022 SP4 HF5','CATIA V5 STEP AP214 v3','none');

FILE_SCHEMA(('AUTOMOTIVE_DESIGN { 1 0 10303 214 1 1 1 1 }'));

ENDSEC;
DATA;
#5=PRODUCT('DIN 912 M4x8','','',(#2)) ;
#2=PRODUCT_CONTEXT(' ',#1,'mechanical') ;
#1=APPLICATION_CONTEXT('automotive design') ;
#10=PRODUCT_DEFINITION('',' ',#6,#3) ;
#3=PRODUCT_DEFINITION_CONTEXT('part definition',#1,' ') ;
#11=PRODUCT_DEFINITION_SHAPE(' ',' ',#10) ;
#544=MECHANICAL_DESIGN_GEOMETRIC_PRESENTATION_REPRESENTATION(' ',(#29),#16) ;
#19=SHAPE_REPRESENTATION(' ',(#18),#16) ;
#18=AXIS2_PLACEMENT_3D(' ',#17,$,$) ;
#34=AXIS2_PLACEMENT_3D('Plane Axis2P3D',#31,#32,#33) ;
#38=AXIS2_PLACEMENT_3D('Circle Axis2P3D',#36,#37,$) ;
#47=AXIS2_PLACEMENT_3D('Circle Axis2P3D',#45,#46,$) ;
#58=AXIS2_PLACEMENT_3D('Cone Axis2P3D',#55,#56,#57) ;
#76=AXIS2_PLACEMENT_3D('Circle Axis2P3D',#74,#75,$) ;
#89=AXIS2_PLACEMENT_3D('Cone Axis2P3D',#86,#87,#88) ;
#93=AXIS2_PLACEMENT_3D('Circle Axis2P3D',#91,#92,$) ;
#106=AXIS2_PLACEMENT_3D('Cylinder Axis2P3D',#103,#104,#105) ;
#124=AXIS2_PLACEMENT_3D('Circle Axis2P3D',#122,#123,$) ;
#136=AXIS2_PLACEMENT_3D('Circle Axis2P3D',#134,#135,$) ;
#149=AXIS2_PLACEMENT_3D('Plane Axis2P3D',#146,#147,#148) ;
#153=AXIS2_PLACEMENT_3D('Circle Axis2P3D',#151,#152,$) ;
#162=AXIS2_PLACEMENT_3D('Circle Axis2P3D',#160,#161,$) ;
#177=AXIS2_PLACEMENT_3D('Cylinder Axis2P3D',#174,#175,#176) ;
#195=AXIS2_PLACEMENT_3D('Circle Axis2P3D',#193,#194,$) ;
#207=AXIS2_PLACEMENT_3D('Circle Axis2P3D',#205,#206,$) ;
#220=AXIS2_PLACEMENT_3D('Torus Axis2P3D',#217,#218,#219) ;
#224=AXIS2_PLACEMENT_3D('Circle Axis2P3D',#222,#223,$) ;
#231=AXIS2_PLACEMENT_3D('Circle Axis2P3D',#229,#230,$) ;
#238=AXIS2_PLACEMENT_3D('Circle Axis2P3D',#236,#237,$) ;
#251=AXIS2_PLACEMENT_3D('Torus Axis2P3D',#248,#249,#250) ;
#255=AXIS2_PLACEMENT_3D('Circle Axis2P3D',#253,#254,$) ;
#268=AXIS2_PLACEMENT_3D('Plane Axis2P3D',#265,#266,#267) ;
#328=AXIS2_PLACEMENT_3D('Cone Axis2P3D',#325,#326,#327) ;
#393=AXIS2_PLACEMENT_3D('Plane Axis2P3D',#390,#391,#392) ;
#415=AXIS2_PLACEMENT_3D('Plane Axis2P3D',#412,#413,#414) ;
#432=AXIS2_PLACEMENT_3D('Plane Axis2P3D',#429,#430,#431) ;
#498=AXIS2_PLACEMENT_3D('Plane Axis2P3D',#495,#496,#497) ;
#516=AXIS2_PLACEMENT_3D('Plane Axis2P3D',#513,#514,#515) ;
#533=AXIS2_PLACEMENT_3D('Plane Axis2P3D',#530,#531,#532) ;
#17=CARTESIAN_POINT(' ',(0.,0.,0.)) ;
#31=CARTESIAN_POINT('Axis2P3D Location',(0.,0.,-8.)) ;
#36=CARTESIAN_POINT('Axis2P3D Location',(1.99840144433E-15,4.52729683815E-14,-8.)) ;
#40=CARTESIAN_POINT('Vertex',(-1.3,3.10949677655E-07,-8.)) ;
#42=CARTESIAN_POINT('Vertex',(1.3,-1.23071761065E-15,-8.)) ;
#45=CARTESIAN_POINT('Axis2P3D Location',(8.50985948375E-14,-9.99200722163E-16,-8.)) ;
#55=CARTESIAN_POINT('Axis2P3D Location',(1.52259157663E-13,1.7925343749E-13,-9.3)) ;
#60=CARTESIAN_POINT('Line Origine',(1.65,-4.81064173539E-14,-7.65)) ;
#64=CARTESIAN_POINT('Vertex',(2.,-4.89858719659E-16,-7.3)) ;
#67=CARTESIAN_POINT('Line Origine',(-1.65,3.94666849397E-07,-7.65)) ;
#71=CARTESIAN_POINT('Vertex',(-2.,2.44929359829E-16,-7.3)) ;
#74=CARTESIAN_POINT('Axis2P3D Location',(1.1536301878E-26,6.66133814789E-16,-7.3)) ;
#86=CARTESIAN_POINT('Axis2P3D Location',(-1.80807749725E-15,2.58523361448E-15,-9.3)) ;
#91=CARTESIAN_POINT('Axis2P3D Location',(-2.22044604925E-16,-1.11022302463E-16,-7.3)) ;
#103=CARTESIAN_POINT('Axis2P3D Location',(0.,0.,-2.)) ;
#108=CARTESIAN_POINT('Line Origine',(2.,0.,-2.)) ;
#112=CARTESIAN_POINT('Vertex',(2.,0.,-4.4408920985E-16)) ;
#115=CARTESIAN_POINT('Line Origine',(-2.,2.44929359829E-16,-2.)) ;
#119=CARTESIAN_POINT('Vertex',(-2.,2.44929359829E-16,0.)) ;
#122=CARTESIAN_POINT('Axis2P3D Location',(0.,0.,0.)) ;
#134=CARTESIAN_POINT('Axis2P3D Location',(0.,0.,0.)) ;
#146=CARTESIAN_POINT('Axis2P3D Location',(0.,0.,0.)) ;
#151=CARTESIAN_POINT('Axis2P3D Location',(0.,0.,0.)) ;
#155=CARTESIAN_POINT('Vertex',(-3.5,4.28626379702E-16,0.)) ;
#157=CARTESIAN_POINT('Vertex',(3.5,0.,0.)) ;
#160=CARTESIAN_POINT('Axis2P3D Location',(0.,0.,0.)) ;
#174=CARTESIAN_POINT('Axis2P3D Location',(0.,0.,2.)) ;
#179=CARTESIAN_POINT('Line Origine',(-3.5,4.28626379702E-16,2.)) ;
#183=CARTESIAN_POINT('Vertex',(-3.5,4.28626379702E-16,3.6)) ;
#186=CARTESIAN_POINT('Line Origine',(3.5,-8.57252759403E-16,2.)) ;
#190=CARTESIAN_POINT('Vertex',(3.5,-8.57252759403E-16,3.6)) ;
#193=CARTESIAN_POINT('Axis2P3D Location',(0.,0.,3.6)) ;
#205=CARTESIAN_POINT('Axis2P3D Location',(0.,0.,3.6)) ;
#217=CARTESIAN_POINT('Axis2P3D Location',(0.,8.881784197E-16,3.6)) ;
#222=CARTESIAN_POINT('Axis2P3D Location',(-3.1,5.44009282066E-16,3.6)) ;
#226=CARTESIAN_POINT('Vertex',(-3.1,4.66807832435E-07,4.)) ;
#229=CARTESIAN_POINT('Axis2P3D Location',(3.1,-4.88498130835E-16,3.6)) ;
#233=CARTESIAN_POINT('Vertex',(3.1,4.50862081377E-16,4.)) ;
#236=CARTESIAN_POINT('Axis2P3D Location',(0.,8.881784197E-16,4.)) ;
#248=CARTESIAN_POINT('Axis2P3D Location',(2.22044604925E-16,-6.66133814775E-16,3.6)) ;
#253=CARTESIAN_POINT('Axis2P3D Location',(2.56610212267E-16,-6.9440992605E-16,4.)) ;
#265=CARTESIAN_POINT('Axis2P3D Location',(0.,0.,4.)) ;
#274=CARTESIAN_POINT('Line Origine',(0.75,-1.29903810568,4.)) ;
#278=CARTESIAN_POINT('Vertex',(-1.11022302463E-16,-1.73205080757,4.)) ;
#280=CARTESIAN_POINT('Vertex',(1.5,-0.866025403784,4.)) ;
#283=CARTESIAN_POINT('Line Origine',(-0.75,-1.29903810568,4.)) ;
#287=CARTESIAN_POINT('Vertex',(-1.5,-0.866025403784,4.)) ;
#290=CARTESIAN_POINT('Line Origine',(-1.5,4.4408920985E-16,4.)) ;
#294=CARTESIAN_POINT('Vertex',(-1.5,0.866025403784,4.)) ;
#297=CARTESIAN_POINT('Line Origine',(-0.75,1.29903810568,4.)) ;
#301=CARTESIAN_POINT('Vertex',(-3.33066907388E-16,1.73205080757,4.)) ;
#304=CARTESIAN_POINT('Line Origine',(0.75,1.29903810568,4.)) ;
#308=CARTESIAN_POINT('Vertex',(1.5,0.866025403784,4.)) ;
#311=CARTESIAN_POINT('Line Origine',(1.5,-8.881784197E-16,4.)) ;
#325=CARTESIAN_POINT('Axis2P3D Location',(0.,0.,1.)) ;
#331=CARTESIAN_POINT('Control Point',(-0.719338599239,-1.31674047366,1.86626660548)) ;
#332=CARTESIAN_POINT('Control Point',(-0.921188824783,-1.20020219161,1.86309128811)) ;
#333=CARTESIAN_POINT('Control Point',(-1.1236268074,-1.08332359235,1.88872790028)) ;
#334=CARTESIAN_POINT('Control Point',(-1.31593782831,-0.972293748157,1.93864594277)) ;
#335=CARTESIAN_POINT('Control Point',(-1.5,-0.866025403784,2.)) ;
#336=CARTESIAN_POINT('Vertex',(-0.719338599239,-1.31674047366,1.86626660548)) ;
#338=CARTESIAN_POINT('Vertex',(-1.5,-0.866025403784,2.)) ;
#341=CARTESIAN_POINT('Line Origine',(-0.415194695654,-0.760008792515,1.5)) ;
#345=CARTESIAN_POINT('Vertex',(5.32269271552E-17,9.7431236622E-17,1.)) ;
#348=CARTESIAN_POINT('Line Origine',(0.415194695654,0.760008792515,1.5)) ;
#352=CARTESIAN_POINT('Vertex',(0.719338599239,1.31674047366,1.86626660548)) ;
#356=CARTESIAN_POINT('Control Point',(0.719338599239,1.31674047366,1.86626660548)) ;
#357=CARTESIAN_POINT('Control Point',(0.470707826205,1.4602875174,1.87017783031)) ;
#358=CARTESIAN_POINT('Control Point',(0.226720182799,1.601153849,1.92442660573)) ;
#359=CARTESIAN_POINT('Control Point',(3.94129173742E-15,1.73205080757,2.)) ;
#360=CARTESIAN_POINT('Vertex',(-3.81140974547E-16,1.73205080757,2.)) ;
#364=CARTESIAN_POINT('Control Point',(-6.66133814775E-16,1.73205080757,2.)) ;
#365=CARTESIAN_POINT('Control Point',(-0.283288697371,1.56849400188,1.90557043421)) ;
#366=CARTESIAN_POINT('Control Point',(-0.583531462263,1.39515000897,1.83347478994)) ;
#367=CARTESIAN_POINT('Control Point',(-0.916535146385,1.20288641411,1.83351125186)) ;
#368=CARTESIAN_POINT('Control Point',(-1.21671130263,1.02958220947,1.90557043421)) ;
#369=CARTESIAN_POINT('Control Point',(-1.5,0.866025403784,2.)) ;
#370=CARTESIAN_POINT('Vertex',(-1.5,0.866025403784,2.)) ;
#374=CARTESIAN_POINT('Control Point',(-1.5,0.866025403784,2.)) ;
#375=CARTESIAN_POINT('Control Point',(-1.5,0.538911792413,1.90557043421)) ;
#376=CARTESIAN_POINT('Control Point',(-1.50000108099,0.192221934255,1.83347478994)) ;
#377=CARTESIAN_POINT('Control Point',(-1.49999776568,-0.19229951318,1.83351125186)) ;
#378=CARTESIAN_POINT('Control Point',(-1.5,-0.538911792413,1.90557043421)) ;
#379=CARTESIAN_POINT('Control Point',(-1.5,-0.866025403784,2.)) ;
#390=CARTESIAN_POINT('Axis2P3D Location',(-1.5,0.866025403784,4.)) ;
#395=CARTESIAN_POINT('Line Origine',(-1.5,0.866025403784,3.)) ;
#400=CARTESIAN_POINT('Line Origine',(-1.5,-0.866025403784,3.)) ;
#412=CARTESIAN_POINT('Axis2P3D Location',(-3.33066907388E-16,1.73205080757,4.)) ;
#417=CARTESIAN_POINT('Line Origine',(-3.33066907388E-16,1.73205080757,3.)) ;
#429=CARTESIAN_POINT('Axis2P3D Location',(1.5,0.866025403784,4.)) ;
#434=CARTESIAN_POINT('Line Origine',(1.5,0.866025403784,3.)) ;
#438=CARTESIAN_POINT('Vertex',(1.5,0.866025403784,2.)) ;
#442=CARTESIAN_POINT('Control Point',(0.719338599239,1.31674047366,1.86626660548)) ;
#443=CARTESIAN_POINT('Control Point',(0.81040076682,1.26416570669,1.86483410135)) ;
#444=CARTESIAN_POINT('Control Point',(0.901603793142,1.2115096149,1.86871447286)) ;
#445=CARTESIAN_POINT('Control Point',(0.992050007932,1.15929046844,1.87799265511)) ;
#446=CARTESIAN_POINT('Control Point',(1.15056718402,1.06777053416,1.90287941689)) ;
#447=CARTESIAN_POINT('Control Point',(1.30448219512,0.978907661065,1.94026423465)) ;
#448=CARTESIAN_POINT('Control Point',(1.37063807647,0.940712545155,1.95859741454)) ;
#449=CARTESIAN_POINT('Control Point',(1.43578757548,0.903098464366,1.97859585849)) ;
#450=CARTESIAN_POINT('Control Point',(1.5,0.866025403784,2.)) ;
#461=CARTESIAN_POINT('Control Point',(1.5,-0.866025403784,2.)) ;
#462=CARTESIAN_POINT('Control Point',(1.5,-0.538911792414,1.90557043421)) ;
#463=CARTESIAN_POINT('Control Point',(1.50000108099,-0.192221934255,1.83347478994)) ;
#464=CARTESIAN_POINT('Control Point',(1.49999776568,0.192299513168,1.83351125186)) ;
#465=CARTESIAN_POINT('Control Point',(1.5,0.538911792414,1.90557043421)) ;
#466=CARTESIAN_POINT('Control Point',(1.5,0.866025403784,2.)) ;
#467=CARTESIAN_POINT('Vertex',(1.5,-0.866025403784,2.)) ;
#471=CARTESIAN_POINT('Control Point',(-0.719338599239,-1.31674047366,1.86626660548)) ;
#472=CARTESIAN_POINT('Control Point',(-0.470707826205,-1.4602875174,1.87017783031)) ;
#473=CARTESIAN_POINT('Control Point',(-0.226720182799,-1.601153849,1.92442660573)) ;
#474=CARTESIAN_POINT('Control Point',(-3.36617838621E-15,-1.73205080757,2.)) ;
#475=CARTESIAN_POINT('Vertex',(-1.48741681433E-17,-1.73205080757,2.)) ;
#479=CARTESIAN_POINT('Control Point',(-1.7763568394E-15,-1.73205080757,2.)) ;
#480=CARTESIAN_POINT('Control Point',(0.283288697371,-1.56849400188,1.90557043421)) ;
#481=CARTESIAN_POINT('Control Point',(0.583531462268,-1.39515000896,1.83347478994)) ;
#482=CARTESIAN_POINT('Control Point',(0.916535146383,-1.20288641411,1.83351125186)) ;
#483=CARTESIAN_POINT('Control Point',(1.21671130263,-1.02958220947,1.90557043421)) ;
#484=CARTESIAN_POINT('Control Point',(1.5,-0.866025403784,2.)) ;
#495=CARTESIAN_POINT('Axis2P3D Location',(-1.5,-0.866025403784,4.)) ;
#500=CARTESIAN_POINT('Line Origine',(4.4408920985E-16,-1.73205080757,3.)) ;
#513=CARTESIAN_POINT('Axis2P3D Location',(1.5,-0.866025403784,4.)) ;
#518=CARTESIAN_POINT('Line Origine',(1.5,-0.866025403784,3.)) ;
#530=CARTESIAN_POINT('Axis2P3D Location',(-1.11022302463E-16,-1.73205080757,4.)) ;
#32=DIRECTION('Axis2P3D Direction',(0.,0.,1.)) ;
#33=DIRECTION('Axis2P3D XDirection',(1.,0.,0.)) ;
#37=DIRECTION('Axis2P3D Direction',(0.,0.,1.)) ;
#46=DIRECTION('Axis2P3D Direction',(0.,0.,1.)) ;
#56=DIRECTION('Axis2P3D Direction',(-7.61295788314E-14,-8.92936518377E-14,1.)) ;
#57=DIRECTION('Axis2P3D XDirection',(1.,-2.71834567437E-16,7.61277451228E-14)) ;
#61=DIRECTION('Vector Direction',(0.707106781187,-9.74349667454E-14,0.707106781187)) ;
#68=DIRECTION('Vector Direction',(-0.707106781187,1.69134229556E-07,0.707106781187)) ;
#75=DIRECTION('Axis2P3D Direction',(-2.42731012216E-29,-8.92936518377E-14,1.)) ;
#87=DIRECTION('Axis2P3D Direction',(7.93016446161E-16,-1.34812795847E-15,1.)) ;
#88=DIRECTION('Axis2P3D XDirection',(-0.958710289403,0.284384565323,1.18538011437E-15)) ;
#92=DIRECTION('Axis2P3D Direction',(-3.03421981329E-16,-1.02288876051E-15,1.)) ;
#104=DIRECTION('Axis2P3D Direction',(0.,0.,1.)) ;
#105=DIRECTION('Axis2P3D XDirection',(1.,0.,0.)) ;
#109=DIRECTION('Vector Direction',(0.,0.,1.)) ;
#116=DIRECTION('Vector Direction',(0.,0.,1.)) ;
#123=DIRECTION('Axis2P3D Direction',(0.,0.,1.)) ;
#135=DIRECTION('Axis2P3D Direction',(0.,0.,1.)) ;
#147=DIRECTION('Axis2P3D Direction',(0.,0.,1.)) ;
#148=DIRECTION('Axis2P3D XDirection',(1.,0.,0.)) ;
#152=DIRECTION('Axis2P3D Direction',(0.,0.,1.)) ;
#161=DIRECTION('Axis2P3D Direction',(0.,0.,1.)) ;
#175=DIRECTION('Axis2P3D Direction',(0.,0.,1.)) ;
#176=DIRECTION('Axis2P3D XDirection',(1.,0.,0.)) ;
#180=DIRECTION('Vector Direction',(0.,0.,1.)) ;
#187=DIRECTION('Vector Direction',(0.,0.,1.)) ;
#194=DIRECTION('Axis2P3D Direction',(0.,0.,1.)) ;
#206=DIRECTION('Axis2P3D Direction',(0.,0.,1.)) ;
#218=DIRECTION('Axis2P3D Direction',(0.,-0.,1.)) ;
#219=DIRECTION('Axis2P3D XDirection',(-0.984593183305,0.174860697097,0.)) ;
#223=DIRECTION('Axis2P3D Direction',(-1.11022302463E-16,1.,0.)) ;
#230=DIRECTION('Axis2P3D Direction',(-4.4408920985E-16,-1.,0.)) ;
#237=DIRECTION('Axis2P3D Direction',(0.,-0.,1.)) ;
#249=DIRECTION('Axis2P3D Direction',(8.64140183558E-17,-7.0690278188E-17,1.)) ;
#250=DIRECTION('Axis2P3D XDirection',(1.,1.90323947079E-16,-1.26882631386E-16)) ;
#254=DIRECTION('Axis2P3D Direction',(8.64140183558E-17,-7.0690278188E-17,1.)) ;
#266=DIRECTION('Axis2P3D Direction',(0.,0.,1.)) ;
#267=DIRECTION('Axis2P3D XDirection',(1.,0.,0.)) ;
#275=DIRECTION('Vector Direction',(0.866025403784,0.5,0.)) ;
#284=DIRECTION('Vector Direction',(0.866025403784,-0.5,0.)) ;
#291=DIRECTION('Vector Direction',(0.,-1.,0.)) ;
#298=DIRECTION('Vector Direction',(-0.866025403784,-0.5,0.)) ;
#305=DIRECTION('Vector Direction',(-0.866025403784,0.5,0.)) ;
#312=DIRECTION('Vector Direction',(0.,1.,0.)) ;
#326=DIRECTION('Axis2P3D Direction',(-0.,-0.,1.)) ;
#327=DIRECTION('Axis2P3D XDirection',(0.479425538604,0.87758256189,0.)) ;
#342=DIRECTION('Vector Direction',(-0.415194695654,-0.760008792515,0.5)) ;
#349=DIRECTION('Vector Direction',(0.415194695654,0.760008792515,0.5)) ;
#391=DIRECTION('Axis2P3D Direction',(1.,1.28197512426E-16,0.)) ;
#392=DIRECTION('Axis2P3D XDirection',(1.28197512426E-16,-1.,0.)) ;
#396=DIRECTION('Vector Direction',(0.,0.,-1.)) ;
#401=DIRECTION('Vector Direction',(0.,0.,1.)) ;
#413=DIRECTION('Axis2P3D Direction',(0.5,-0.866025403784,0.)) ;
#414=DIRECTION('Axis2P3D XDirection',(-0.866025403784,-0.5,0.)) ;
#418=DIRECTION('Vector Direction',(0.,0.,-1.)) ;
#430=DIRECTION('Axis2P3D Direction',(-0.5,-0.866025403784,-0.)) ;
#431=DIRECTION('Axis2P3D XDirection',(-0.866025403784,0.5,0.)) ;
#435=DIRECTION('Vector Direction',(0.,0.,-1.)) ;
#496=DIRECTION('Axis2P3D Direction',(0.5,0.866025403784,0.)) ;
#497=DIRECTION('Axis2P3D XDirection',(0.866025403784,-0.5,0.)) ;
#501=DIRECTION('Vector Direction',(0.,0.,1.)) ;
#514=DIRECTION('Axis2P3D Direction',(-1.,0.,0.)) ;
#515=DIRECTION('Axis2P3D XDirection',(0.,1.,0.)) ;
#519=DIRECTION('Vector Direction',(0.,0.,1.)) ;
#531=DIRECTION('Axis2P3D Direction',(-0.5,0.866025403784,0.)) ;
#532=DIRECTION('Axis2P3D XDirection',(0.866025403784,0.5,0.)) ;
#8=PRODUCT_RELATED_PRODUCT_CATEGORY('part',$,(#5)) ;
#7=PRODUCT_CATEGORY('part','specification') ;
#29=STYLED_ITEM(' ',(#28),#21) ;
#28=PRESENTATION_STYLE_ASSIGNMENT((#27)) ;
#27=SURFACE_STYLE_USAGE(.BOTH.,#26) ;
#26=SURFACE_SIDE_STYLE(' ',(#25)) ;
#25=SURFACE_STYLE_FILL_AREA(#24) ;
#24=FILL_AREA_STYLE(' ',(#23)) ;
#23=FILL_AREA_STYLE_COLOUR(' ',#22) ;
#62=VECTOR('Line Direction',#61,1.) ;
#69=VECTOR('Line Direction',#68,1.) ;
#110=VECTOR('Line Direction',#109,1.) ;
#117=VECTOR('Line Direction',#116,1.) ;
#181=VECTOR('Line Direction',#180,1.) ;
#188=VECTOR('Line Direction',#187,1.) ;
#276=VECTOR('Line Direction',#275,1.) ;
#285=VECTOR('Line Direction',#284,1.) ;
#292=VECTOR('Line Direction',#291,1.) ;
#299=VECTOR('Line Direction',#298,1.) ;
#306=VECTOR('Line Direction',#305,1.) ;
#313=VECTOR('Line Direction',#312,1.) ;
#343=VECTOR('Line Direction',#342,1.) ;
#350=VECTOR('Line Direction',#349,1.) ;
#397=VECTOR('Line Direction',#396,1.) ;
#402=VECTOR('Line Direction',#401,1.) ;
#419=VECTOR('Line Direction',#418,1.) ;
#436=VECTOR('Line Direction',#435,1.) ;
#502=VECTOR('Line Direction',#501,1.) ;
#520=VECTOR('Line Direction',#519,1.) ;
#15=UNCERTAINTY_MEASURE_WITH_UNIT(LENGTH_MEASURE(0.005),#12,'distance_accuracy_value','CONFUSED CURVE UNCERTAINTY') ;
#543=SHAPE_REPRESENTATION_RELATIONSHIP(' ',' ',#19,#542) ;
#51=ORIENTED_EDGE('',*,*,#44,.F.) ;
#52=ORIENTED_EDGE('',*,*,#49,.F.) ;
#80=ORIENTED_EDGE('',*,*,#66,.T.) ;
#81=ORIENTED_EDGE('',*,*,#49,.T.) ;
#82=ORIENTED_EDGE('',*,*,#73,.F.) ;
#83=ORIENTED_EDGE('',*,*,#78,.F.) ;
#97=ORIENTED_EDGE('',*,*,#73,.T.) ;
#98=ORIENTED_EDGE('',*,*,#44,.T.) ;
#99=ORIENTED_EDGE('',*,*,#66,.F.) ;
#100=ORIENTED_EDGE('',*,*,#95,.F.) ;
#128=ORIENTED_EDGE('',*,*,#114,.F.) ;
#129=ORIENTED_EDGE('',*,*,#78,.T.) ;
#130=ORIENTED_EDGE('',*,*,#121,.F.) ;
#131=ORIENTED_EDGE('',*,*,#126,.F.) ;
#140=ORIENTED_EDGE('',*,*,#121,.T.) ;
#141=ORIENTED_EDGE('',*,*,#95,.T.) ;
#142=ORIENTED_EDGE('',*,*,#114,.T.) ;
#143=ORIENTED_EDGE('',*,*,#138,.F.) ;
#166=ORIENTED_EDGE('',*,*,#159,.F.) ;
#167=ORIENTED_EDGE('',*,*,#164,.F.) ;
#170=ORIENTED_EDGE('',*,*,#126,.T.) ;
#171=ORIENTED_EDGE('',*,*,#138,.T.) ;
#199=ORIENTED_EDGE('',*,*,#185,.F.) ;
#200=ORIENTED_EDGE('',*,*,#159,.T.) ;
#201=ORIENTED_EDGE('',*,*,#192,.T.) ;
#202=ORIENTED_EDGE('',*,*,#197,.F.) ;
#211=ORIENTED_EDGE('',*,*,#192,.F.) ;
#212=ORIENTED_EDGE('',*,*,#164,.T.) ;
#213=ORIENTED_EDGE('',*,*,#185,.T.) ;
#214=ORIENTED_EDGE('',*,*,#209,.F.) ;
#242=ORIENTED_EDGE('',*,*,#228,.T.) ;
#243=ORIENTED_EDGE('',*,*,#197,.T.) ;
#244=ORIENTED_EDGE('',*,*,#235,.F.) ;
#245=ORIENTED_EDGE('',*,*,#240,.F.) ;
#259=ORIENTED_EDGE('',*,*,#235,.T.) ;
#260=ORIENTED_EDGE('',*,*,#209,.T.) ;
#261=ORIENTED_EDGE('',*,*,#228,.F.) ;
#262=ORIENTED_EDGE('',*,*,#257,.F.) ;
#271=ORIENTED_EDGE('',*,*,#240,.T.) ;
#272=ORIENTED_EDGE('',*,*,#257,.T.) ;
#317=ORIENTED_EDGE('',*,*,#282,.F.) ;
#318=ORIENTED_EDGE('',*,*,#289,.F.) ;
#319=ORIENTED_EDGE('',*,*,#296,.F.) ;
#320=ORIENTED_EDGE('',*,*,#303,.F.) ;
#321=ORIENTED_EDGE('',*,*,#310,.F.) ;
#322=ORIENTED_EDGE('',*,*,#315,.F.) ;
#382=ORIENTED_EDGE('',*,*,#340,.F.) ;
#383=ORIENTED_EDGE('',*,*,#347,.F.) ;
#384=ORIENTED_EDGE('',*,*,#354,.T.) ;
#385=ORIENTED_EDGE('',*,*,#362,.T.) ;
#386=ORIENTED_EDGE('',*,*,#372,.T.) ;
#387=ORIENTED_EDGE('',*,*,#380,.T.) ;
#406=ORIENTED_EDGE('',*,*,#399,.F.) ;
#407=ORIENTED_EDGE('',*,*,#296,.T.) ;
#408=ORIENTED_EDGE('',*,*,#404,.T.) ;
#409=ORIENTED_EDGE('',*,*,#380,.F.) ;
#423=ORIENTED_EDGE('',*,*,#421,.F.) ;
#424=ORIENTED_EDGE('',*,*,#303,.T.) ;
#425=ORIENTED_EDGE('',*,*,#399,.T.) ;
#426=ORIENTED_EDGE('',*,*,#372,.F.) ;
#453=ORIENTED_EDGE('',*,*,#440,.F.) ;
#454=ORIENTED_EDGE('',*,*,#310,.T.) ;
#455=ORIENTED_EDGE('',*,*,#421,.T.) ;
#456=ORIENTED_EDGE('',*,*,#362,.F.) ;
#457=ORIENTED_EDGE('',*,*,#451,.T.) ;
#487=ORIENTED_EDGE('',*,*,#469,.T.) ;
#488=ORIENTED_EDGE('',*,*,#451,.F.) ;
#489=ORIENTED_EDGE('',*,*,#354,.F.) ;
#490=ORIENTED_EDGE('',*,*,#347,.T.) ;
#491=ORIENTED_EDGE('',*,*,#477,.T.) ;
#492=ORIENTED_EDGE('',*,*,#485,.T.) ;
#506=ORIENTED_EDGE('',*,*,#404,.F.) ;
#507=ORIENTED_EDGE('',*,*,#289,.T.) ;
#508=ORIENTED_EDGE('',*,*,#504,.T.) ;
#509=ORIENTED_EDGE('',*,*,#477,.F.) ;
#510=ORIENTED_EDGE('',*,*,#340,.T.) ;
#524=ORIENTED_EDGE('',*,*,#315,.T.) ;
#525=ORIENTED_EDGE('',*,*,#440,.T.) ;
#526=ORIENTED_EDGE('',*,*,#469,.F.) ;
#527=ORIENTED_EDGE('',*,*,#522,.F.) ;
#536=ORIENTED_EDGE('',*,*,#522,.T.) ;
#537=ORIENTED_EDGE('',*,*,#485,.F.) ;
#538=ORIENTED_EDGE('',*,*,#504,.F.) ;
#539=ORIENTED_EDGE('',*,*,#282,.T.) ;
#172=FACE_BOUND('',#169,.T.) ;
#323=FACE_BOUND('',#316,.T.) ;
#30=CLOSED_SHELL('Closed Shell',(#54,#85,#102,#133,#145,#173,#204,#216,#247,#264,#324,#389,#411,#428,#459,#494,#512,#529,#541)) ;
#542=ADVANCED_BREP_SHAPE_REPRESENTATION('NONE',(#21),#16) ;
#54=ADVANCED_FACE('Hauptk\X2\00F6\X0\rper',(#53),#35,.F.) ;
#85=ADVANCED_FACE('Hauptk\X2\00F6\X0\rper',(#84),#59,.T.) ;
#102=ADVANCED_FACE('Hauptk\X2\00F6\X0\rper',(#101),#90,.T.) ;
#133=ADVANCED_FACE('Hauptk\X2\00F6\X0\rper',(#132),#107,.T.) ;
#145=ADVANCED_FACE('Hauptk\X2\00F6\X0\rper',(#144),#107,.T.) ;
#173=ADVANCED_FACE('Hauptk\X2\00F6\X0\rper',(#168,#172),#150,.F.) ;
#204=ADVANCED_FACE('Hauptk\X2\00F6\X0\rper',(#203),#178,.T.) ;
#216=ADVANCED_FACE('Hauptk\X2\00F6\X0\rper',(#215),#178,.T.) ;
#247=ADVANCED_FACE('Hauptk\X2\00F6\X0\rper',(#246),#221,.T.) ;
#264=ADVANCED_FACE('Hauptk\X2\00F6\X0\rper',(#263),#252,.T.) ;
#324=ADVANCED_FACE('Hauptk\X2\00F6\X0\rper',(#273,#323),#269,.T.) ;
#389=ADVANCED_FACE('Hauptk\X2\00F6\X0\rper',(#388),#329,.F.) ;
#411=ADVANCED_FACE('Hauptk\X2\00F6\X0\rper',(#410),#394,.T.) ;
#428=ADVANCED_FACE('Hauptk\X2\00F6\X0\rper',(#427),#416,.T.) ;
#459=ADVANCED_FACE('Hauptk\X2\00F6\X0\rper',(#458),#433,.T.) ;
#494=ADVANCED_FACE('Hauptk\X2\00F6\X0\rper',(#493),#329,.F.) ;
#512=ADVANCED_FACE('Hauptk\X2\00F6\X0\rper',(#511),#499,.T.) ;
#529=ADVANCED_FACE('Hauptk\X2\00F6\X0\rper',(#528),#517,.T.) ;
#541=ADVANCED_FACE('Hauptk\X2\00F6\X0\rper',(#540),#534,.T.) ;
#4=APPLICATION_PROTOCOL_DEFINITION('international standard','automotive_design',2001,#1) ;
#330=B_SPLINE_CURVE_WITH_KNOTS('',4,(#331,#332,#333,#334,#335),.UNSPECIFIED.,.F.,.U.,(5,5),(0.,1.07675933443),.UNSPECIFIED.) ;
#355=B_SPLINE_CURVE_WITH_KNOTS('',3,(#356,#357,#358,#359),.UNSPECIFIED.,.F.,.U.,(4,4),(0.,0.994730764982),.UNSPECIFIED.) ;
#363=B_SPLINE_CURVE_WITH_KNOTS('',5,(#364,#365,#366,#367,#368,#369),.UNSPECIFIED.,.F.,.U.,(6,6),(0.,2.07154019232),.UNSPECIFIED.) ;
#373=B_SPLINE_CURVE_WITH_KNOTS('',5,(#374,#375,#376,#377,#378,#379),.UNSPECIFIED.,.F.,.U.,(6,6),(0.,2.07154019232),.UNSPECIFIED.) ;
#441=B_SPLINE_CURVE_WITH_KNOTS('',5,(#442,#443,#444,#445,#446,#447,#448,#449,#450),.UNSPECIFIED.,.F.,.U.,(6,3,6),(0.,0.607207885775,1.07675933443),.UNSPECIFIED.) ;
#460=B_SPLINE_CURVE_WITH_KNOTS('',5,(#461,#462,#463,#464,#465,#466),.UNSPECIFIED.,.F.,.U.,(6,6),(0.,2.07154019232),.UNSPECIFIED.) ;
#470=B_SPLINE_CURVE_WITH_KNOTS('',3,(#471,#472,#473,#474),.UNSPECIFIED.,.F.,.U.,(4,4),(0.,0.994730764981),.UNSPECIFIED.) ;
#478=B_SPLINE_CURVE_WITH_KNOTS('',5,(#479,#480,#481,#482,#483,#484),.UNSPECIFIED.,.F.,.U.,(6,6),(0.,2.07154019232),.UNSPECIFIED.) ;
#21=MANIFOLD_SOLID_BREP('Hauptk\X2\00F6\X0\rper',#30) ;
#39=CIRCLE('generated circle',#38,1.3) ;
#48=CIRCLE('generated circle',#47,1.3) ;
#77=CIRCLE('generated circle',#76,2.) ;
#94=CIRCLE('generated circle',#93,2.) ;
#125=CIRCLE('generated circle',#124,2.) ;
#137=CIRCLE('generated circle',#136,2.) ;
#154=CIRCLE('generated circle',#153,3.5) ;
#163=CIRCLE('generated circle',#162,3.5) ;
#196=CIRCLE('generated circle',#195,3.5) ;
#208=CIRCLE('generated circle',#207,3.5) ;
#225=CIRCLE('generated circle',#224,0.4) ;
#232=CIRCLE('generated circle',#231,0.4) ;
#239=CIRCLE('generated circle',#238,3.1) ;
#256=CIRCLE('generated circle',#255,3.1) ;
#22=COLOUR_RGB('Colour',0.823529411765,0.823529411765,1.) ;
#59=CONICAL_SURFACE('Cone',#58,0.,0.785398163397) ;
#90=CONICAL_SURFACE('Cone',#89,0.,0.785398163397) ;
#329=CONICAL_SURFACE('Cone',#328,1.11022302463E-16,1.0471975512) ;
#107=CYLINDRICAL_SURFACE('generated cylinder',#106,2.) ;
#178=CYLINDRICAL_SURFACE('generated cylinder',#177,3.5) ;
#221=TOROIDAL_SURFACE('homeo Torus',#220,3.1,0.4) ;
#252=TOROIDAL_SURFACE('homeo Torus',#251,3.1,0.4) ;
#44=EDGE_CURVE('',#41,#43,#39,.T.) ;
#49=EDGE_CURVE('',#43,#41,#48,.T.) ;
#66=EDGE_CURVE('',#65,#43,#63,.F.) ;
#73=EDGE_CURVE('',#72,#41,#70,.F.) ;
#78=EDGE_CURVE('',#65,#72,#77,.T.) ;
#95=EDGE_CURVE('',#72,#65,#94,.T.) ;
#114=EDGE_CURVE('',#65,#113,#111,.T.) ;
#121=EDGE_CURVE('',#120,#72,#118,.F.) ;
#126=EDGE_CURVE('',#113,#120,#125,.T.) ;
#138=EDGE_CURVE('',#120,#113,#137,.T.) ;
#159=EDGE_CURVE('',#156,#158,#154,.T.) ;
#164=EDGE_CURVE('',#158,#156,#163,.T.) ;
#185=EDGE_CURVE('',#156,#184,#182,.T.) ;
#192=EDGE_CURVE('',#158,#191,#189,.T.) ;
#197=EDGE_CURVE('',#184,#191,#196,.T.) ;
#209=EDGE_CURVE('',#191,#184,#208,.T.) ;
#228=EDGE_CURVE('',#227,#184,#225,.F.) ;
#235=EDGE_CURVE('',#234,#191,#232,.F.) ;
#240=EDGE_CURVE('',#227,#234,#239,.T.) ;
#257=EDGE_CURVE('',#234,#227,#256,.T.) ;
#282=EDGE_CURVE('',#279,#281,#277,.T.) ;
#289=EDGE_CURVE('',#288,#279,#286,.T.) ;
#296=EDGE_CURVE('',#295,#288,#293,.T.) ;
#303=EDGE_CURVE('',#302,#295,#300,.T.) ;
#310=EDGE_CURVE('',#309,#302,#307,.T.) ;
#315=EDGE_CURVE('',#281,#309,#314,.T.) ;
#340=EDGE_CURVE('',#337,#339,#330,.T.) ;
#347=EDGE_CURVE('',#346,#337,#344,.T.) ;
#354=EDGE_CURVE('',#346,#353,#351,.T.) ;
#362=EDGE_CURVE('',#353,#361,#355,.T.) ;
#372=EDGE_CURVE('',#361,#371,#363,.T.) ;
#380=EDGE_CURVE('',#371,#339,#373,.T.) ;
#399=EDGE_CURVE('',#295,#371,#398,.T.) ;
#404=EDGE_CURVE('',#288,#339,#403,.F.) ;
#421=EDGE_CURVE('',#302,#361,#420,.T.) ;
#440=EDGE_CURVE('',#309,#439,#437,.T.) ;
#451=EDGE_CURVE('',#353,#439,#441,.T.) ;
#469=EDGE_CURVE('',#468,#439,#460,.T.) ;
#477=EDGE_CURVE('',#337,#476,#470,.T.) ;
#485=EDGE_CURVE('',#476,#468,#478,.T.) ;
#504=EDGE_CURVE('',#279,#476,#503,.F.) ;
#522=EDGE_CURVE('',#281,#468,#521,.F.) ;
#50=EDGE_LOOP('',(#51,#52)) ;
#79=EDGE_LOOP('',(#80,#81,#82,#83)) ;
#96=EDGE_LOOP('',(#97,#98,#99,#100)) ;
#127=EDGE_LOOP('',(#128,#129,#130,#131)) ;
#139=EDGE_LOOP('',(#140,#141,#142,#143)) ;
#165=EDGE_LOOP('',(#166,#167)) ;
#169=EDGE_LOOP('',(#170,#171)) ;
#198=EDGE_LOOP('',(#199,#200,#201,#202)) ;
#210=EDGE_LOOP('',(#211,#212,#213,#214)) ;
#241=EDGE_LOOP('',(#242,#243,#244,#245)) ;
#258=EDGE_LOOP('',(#259,#260,#261,#262)) ;
#270=EDGE_LOOP('',(#271,#272)) ;
#316=EDGE_LOOP('',(#317,#318,#319,#320,#321,#322)) ;
#381=EDGE_LOOP('',(#382,#383,#384,#385,#386,#387)) ;
#405=EDGE_LOOP('',(#406,#407,#408,#409)) ;
#422=EDGE_LOOP('',(#423,#424,#425,#426)) ;
#452=EDGE_LOOP('',(#453,#454,#455,#456,#457)) ;
#486=EDGE_LOOP('',(#487,#488,#489,#490,#491,#492)) ;
#505=EDGE_LOOP('',(#506,#507,#508,#509,#510)) ;
#523=EDGE_LOOP('',(#524,#525,#526,#527)) ;
#535=EDGE_LOOP('',(#536,#537,#538,#539)) ;
#53=FACE_OUTER_BOUND('',#50,.T.) ;
#84=FACE_OUTER_BOUND('',#79,.T.) ;
#101=FACE_OUTER_BOUND('',#96,.T.) ;
#132=FACE_OUTER_BOUND('',#127,.T.) ;
#144=FACE_OUTER_BOUND('',#139,.T.) ;
#168=FACE_OUTER_BOUND('',#165,.T.) ;
#203=FACE_OUTER_BOUND('',#198,.T.) ;
#215=FACE_OUTER_BOUND('',#210,.T.) ;
#246=FACE_OUTER_BOUND('',#241,.T.) ;
#263=FACE_OUTER_BOUND('',#258,.T.) ;
#273=FACE_OUTER_BOUND('',#270,.T.) ;
#388=FACE_OUTER_BOUND('',#381,.T.) ;
#410=FACE_OUTER_BOUND('',#405,.T.) ;
#427=FACE_OUTER_BOUND('',#422,.T.) ;
#458=FACE_OUTER_BOUND('',#452,.T.) ;
#493=FACE_OUTER_BOUND('',#486,.T.) ;
#511=FACE_OUTER_BOUND('',#505,.T.) ;
#528=FACE_OUTER_BOUND('',#523,.T.) ;
#540=FACE_OUTER_BOUND('',#535,.T.) ;
#63=LINE('Line',#60,#62) ;
#70=LINE('Line',#67,#69) ;
#111=LINE('Line',#108,#110) ;
#118=LINE('Line',#115,#117) ;
#182=LINE('Line',#179,#181) ;
#189=LINE('Line',#186,#188) ;
#277=LINE('Line',#274,#276) ;
#286=LINE('Line',#283,#285) ;
#293=LINE('Line',#290,#292) ;
#300=LINE('Line',#297,#299) ;
#307=LINE('Line',#304,#306) ;
#314=LINE('Line',#311,#313) ;
#344=LINE('Line',#341,#343) ;
#351=LINE('Line',#348,#350) ;
#398=LINE('Line',#395,#397) ;
#403=LINE('Line',#400,#402) ;
#420=LINE('Line',#417,#419) ;
#437=LINE('Line',#434,#436) ;
#503=LINE('Line',#500,#502) ;
#521=LINE('Line',#518,#520) ;
#35=PLANE('',#34) ;
#150=PLANE('',#149) ;
#269=PLANE('',#268) ;
#394=PLANE('',#393) ;
#416=PLANE('',#415) ;
#433=PLANE('',#432) ;
#499=PLANE('',#498) ;
#517=PLANE('',#516) ;
#534=PLANE('',#533) ;
#9=PRODUCT_CATEGORY_RELATIONSHIP(' ',' ',#7,#8) ;
#6=PRODUCT_DEFINITION_FORMATION_WITH_SPECIFIED_SOURCE('',' ',#5,.BOUGHT.) ;
#20=SHAPE_DEFINITION_REPRESENTATION(#11,#19) ;
#41=VERTEX_POINT('',#40) ;
#43=VERTEX_POINT('',#42) ;
#65=VERTEX_POINT('',#64) ;
#72=VERTEX_POINT('',#71) ;
#113=VERTEX_POINT('',#112) ;
#120=VERTEX_POINT('',#119) ;
#156=VERTEX_POINT('',#155) ;
#158=VERTEX_POINT('',#157) ;
#184=VERTEX_POINT('',#183) ;
#191=VERTEX_POINT('',#190) ;
#227=VERTEX_POINT('',#226) ;
#234=VERTEX_POINT('',#233) ;
#279=VERTEX_POINT('',#278) ;
#281=VERTEX_POINT('',#280) ;
#288=VERTEX_POINT('',#287) ;
#295=VERTEX_POINT('',#294) ;
#302=VERTEX_POINT('',#301) ;
#309=VERTEX_POINT('',#308) ;
#337=VERTEX_POINT('',#336) ;
#339=VERTEX_POINT('',#338) ;
#346=VERTEX_POINT('',#345) ;
#353=VERTEX_POINT('',#352) ;
#361=VERTEX_POINT('',#360) ;
#371=VERTEX_POINT('',#370) ;
#439=VERTEX_POINT('',#438) ;
#468=VERTEX_POINT('',#467) ;
#476=VERTEX_POINT('',#475) ;
#12=(LENGTH_UNIT()NAMED_UNIT(*)SI_UNIT(.MILLI.,.METRE.)) ;
#13=(NAMED_UNIT(*)PLANE_ANGLE_UNIT()SI_UNIT($,.RADIAN.)) ;
#14=(NAMED_UNIT(*)SI_UNIT($,.STERADIAN.)SOLID_ANGLE_UNIT()) ;
#16=(GEOMETRIC_REPRESENTATION_CONTEXT(3)GLOBAL_UNCERTAINTY_ASSIGNED_CONTEXT((#15))GLOBAL_UNIT_ASSIGNED_CONTEXT((#12,#13,#14))REPRESENTATION_CONTEXT(' ',' ')) ;
ENDSEC;
END-ISO-10303-21;
