ISO-10303-21;
HEADER;
FILE_DESCRIPTION(('CATIA V5 STEP Exchange','CAx-IF Rec.Pracs.--- Model Styling and Organization---1.4--- 2014-01-23'),'2;1');

FILE_NAME ('001853-39_1_0348900000_0348900000.stp','2022-03-21T13:15:25+00:00',('none'),('Weidmueller'),'CATIA Version 5-6 Release 2016 SP3 HF44','CATIA V5 STEP AP214','none');

FILE_SCHEMA(('AUTOMOTIVE_DESIGN { 1 0 10303 214 1 1 1 1 }'));

ENDSEC;
DATA;
#5=PRODUCT('SSCH 10x3x1000 CU/SN','Standard','',(#2)) ;
#2=PRODUCT_CONTEXT(' ',#1,'mechanical') ;
#1=APPLICATION_CONTEXT('automotive design') ;
#10=PRODUCT_DEFINITION('design',' ',#6,#3) ;
#3=PRODUCT_DEFINITION_CONTEXT('part definition',#1,' ') ;
#11=PRODUCT_DEFINITION_SHAPE(' ',' ',#10) ;
#192=MECHANICAL_DESIGN_GEOMETRIC_PRESENTATION_REPRESENTATION(' ',(#29),#16) ;
#193=MECHANICAL_DESIGN_GEOMETRIC_PRESENTATION_REPRESENTATION(' ',(#189),#16) ;
#19=SHAPE_REPRESENTATION(' ',(#18),#16) ;
#18=AXIS2_PLACEMENT_3D(' ',#17,$,$) ;
#34=AXIS2_PLACEMENT_3D('Plane Axis2P3D',#31,#32,#33) ;
#74=AXIS2_PLACEMENT_3D('Plane Axis2P3D',#71,#72,#73) ;
#105=AXIS2_PLACEMENT_3D('Plane Axis2P3D',#102,#103,#104) ;
#129=AXIS2_PLACEMENT_3D('Plane Axis2P3D',#126,#127,#128) ;
#153=AXIS2_PLACEMENT_3D('Plane Axis2P3D',#150,#151,#152) ;
#170=AXIS2_PLACEMENT_3D('Plane Axis2P3D',#167,#168,#169) ;
#184=AXIS2_PLACEMENT_3D('Achsensystem.1',#181,#182,#183) ;
#17=CARTESIAN_POINT(' ',(0.,0.,0.)) ;
#31=CARTESIAN_POINT('Axis2P3D Location',(1000.,0.,0.)) ;
#36=CARTESIAN_POINT('Line Origine',(0.,5.,0.)) ;
#40=CARTESIAN_POINT('Vertex',(0.,0.,0.)) ;
#42=CARTESIAN_POINT('Vertex',(0.,10.,0.)) ;
#45=CARTESIAN_POINT('Line Origine',(500.,10.,0.)) ;
#49=CARTESIAN_POINT('Vertex',(1000.,10.,0.)) ;
#52=CARTESIAN_POINT('Line Origine',(1000.,5.,0.)) ;
#56=CARTESIAN_POINT('Vertex',(1000.,0.,0.)) ;
#59=CARTESIAN_POINT('Line Origine',(500.,0.,0.)) ;
#71=CARTESIAN_POINT('Axis2P3D Location',(1000.,10.,0.)) ;
#76=CARTESIAN_POINT('Line Origine',(1000.,10.,1.5)) ;
#80=CARTESIAN_POINT('Vertex',(1000.,10.,3.)) ;
#83=CARTESIAN_POINT('Line Origine',(0.,10.,1.5)) ;
#87=CARTESIAN_POINT('Vertex',(0.,10.,3.)) ;
#90=CARTESIAN_POINT('Line Origine',(500.,10.,3.)) ;
#102=CARTESIAN_POINT('Axis2P3D Location',(1000.,10.,3.)) ;
#107=CARTESIAN_POINT('Line Origine',(1000.,5.,3.)) ;
#111=CARTESIAN_POINT('Vertex',(1000.,-9.98312543743E-013,3.)) ;
#114=CARTESIAN_POINT('Line Origine',(1000.,0.,1.5)) ;
#126=CARTESIAN_POINT('Axis2P3D Location',(1000.,0.,3.)) ;
#131=CARTESIAN_POINT('Line Origine',(0.,0.,1.5)) ;
#135=CARTESIAN_POINT('Vertex',(0.,0.,3.)) ;
#138=CARTESIAN_POINT('Line Origine',(500.,0.,3.)) ;
#150=CARTESIAN_POINT('Axis2P3D Location',(0.,0.,0.)) ;
#155=CARTESIAN_POINT('Line Origine',(0.,5.,3.)) ;
#167=CARTESIAN_POINT('Axis2P3D Location',(1000.,10.,3.)) ;
#181=CARTESIAN_POINT('Axis2P3D Location',(0.,0.,0.)) ;
#32=DIRECTION('Axis2P3D Direction',(0.,0.,1.)) ;
#33=DIRECTION('Axis2P3D XDirection',(1.,0.,0.)) ;
#37=DIRECTION('Vector Direction',(0.,1.,0.)) ;
#46=DIRECTION('Vector Direction',(1.,0.,0.)) ;
#53=DIRECTION('Vector Direction',(0.,1.,0.)) ;
#60=DIRECTION('Vector Direction',(1.,0.,0.)) ;
#72=DIRECTION('Axis2P3D Direction',(0.,-1.,0.)) ;
#73=DIRECTION('Axis2P3D XDirection',(0.,0.,-1.)) ;
#77=DIRECTION('Vector Direction',(0.,0.,-1.)) ;
#84=DIRECTION('Vector Direction',(0.,0.,1.)) ;
#91=DIRECTION('Vector Direction',(1.,0.,0.)) ;
#103=DIRECTION('Axis2P3D Direction',(-1.,0.,0.)) ;
#104=DIRECTION('Axis2P3D XDirection',(0.,0.,1.)) ;
#108=DIRECTION('Vector Direction',(0.,1.,0.)) ;
#115=DIRECTION('Vector Direction',(0.,0.,1.)) ;
#127=DIRECTION('Axis2P3D Direction',(0.,1.,0.)) ;
#128=DIRECTION('Axis2P3D XDirection',(0.,0.,1.)) ;
#132=DIRECTION('Vector Direction',(0.,0.,-1.)) ;
#139=DIRECTION('Vector Direction',(1.,0.,0.)) ;
#151=DIRECTION('Axis2P3D Direction',(1.,-0.,0.)) ;
#152=DIRECTION('Axis2P3D XDirection',(0.,0.,-1.)) ;
#156=DIRECTION('Vector Direction',(0.,1.,0.)) ;
#168=DIRECTION('Axis2P3D Direction',(0.,0.,-1.)) ;
#169=DIRECTION('Axis2P3D XDirection',(-1.,0.,0.)) ;
#182=DIRECTION('Axis2P3D Direction',(1.,-6.12323399574E-017,0.)) ;
#183=DIRECTION('Axis2P3D XDirection',(6.12323399574E-017,1.,-6.12323399574E-017)) ;
#8=PRODUCT_RELATED_PRODUCT_CATEGORY('part',$,(#5)) ;
#7=PRODUCT_CATEGORY('part','specification') ;
#29=STYLED_ITEM(' ',(#28),#21) ;
#189=STYLED_ITEM(' ',(#188),#184) ;
#28=PRESENTATION_STYLE_ASSIGNMENT((#27)) ;
#188=PRESENTATION_STYLE_ASSIGNMENT((#187)) ;
#187=CURVE_STYLE(' ',#185,POSITIVE_LENGTH_MEASURE(0.129999995232),#186) ;
#27=SURFACE_STYLE_USAGE(.BOTH.,#26) ;
#26=SURFACE_SIDE_STYLE(' ',(#25)) ;
#25=SURFACE_STYLE_FILL_AREA(#24) ;
#24=FILL_AREA_STYLE(' ',(#23)) ;
#23=FILL_AREA_STYLE_COLOUR(' ',#22) ;
#38=VECTOR('Line Direction',#37,1.) ;
#47=VECTOR('Line Direction',#46,1.) ;
#54=VECTOR('Line Direction',#53,1.) ;
#61=VECTOR('Line Direction',#60,1.) ;
#78=VECTOR('Line Direction',#77,1.) ;
#85=VECTOR('Line Direction',#84,1.) ;
#92=VECTOR('Line Direction',#91,1.) ;
#109=VECTOR('Line Direction',#108,1.) ;
#116=VECTOR('Line Direction',#115,1.) ;
#133=VECTOR('Line Direction',#132,1.) ;
#140=VECTOR('Line Direction',#139,1.) ;
#157=VECTOR('Line Direction',#156,1.) ;
#15=UNCERTAINTY_MEASURE_WITH_UNIT(LENGTH_MEASURE(0.005),#12,'distance_accuracy_value','CONFUSED CURVE UNCERTAINTY') ;
#180=SHAPE_REPRESENTATION_RELATIONSHIP(' ',' ',#19,#179) ;
#65=ORIENTED_EDGE('',*,*,#44,.T.) ;
#66=ORIENTED_EDGE('',*,*,#51,.T.) ;
#67=ORIENTED_EDGE('',*,*,#58,.F.) ;
#68=ORIENTED_EDGE('',*,*,#63,.F.) ;
#96=ORIENTED_EDGE('',*,*,#82,.T.) ;
#97=ORIENTED_EDGE('',*,*,#51,.F.) ;
#98=ORIENTED_EDGE('',*,*,#89,.T.) ;
#99=ORIENTED_EDGE('',*,*,#94,.T.) ;
#120=ORIENTED_EDGE('',*,*,#58,.T.) ;
#121=ORIENTED_EDGE('',*,*,#82,.F.) ;
#122=ORIENTED_EDGE('',*,*,#113,.F.) ;
#123=ORIENTED_EDGE('',*,*,#118,.F.) ;
#144=ORIENTED_EDGE('',*,*,#137,.T.) ;
#145=ORIENTED_EDGE('',*,*,#63,.T.) ;
#146=ORIENTED_EDGE('',*,*,#118,.T.) ;
#147=ORIENTED_EDGE('',*,*,#142,.F.) ;
#161=ORIENTED_EDGE('',*,*,#89,.F.) ;
#162=ORIENTED_EDGE('',*,*,#44,.F.) ;
#163=ORIENTED_EDGE('',*,*,#137,.F.) ;
#164=ORIENTED_EDGE('',*,*,#159,.T.) ;
#173=ORIENTED_EDGE('',*,*,#142,.T.) ;
#174=ORIENTED_EDGE('',*,*,#113,.T.) ;
#175=ORIENTED_EDGE('',*,*,#94,.F.) ;
#176=ORIENTED_EDGE('',*,*,#159,.F.) ;
#30=CLOSED_SHELL('Closed Shell',(#70,#101,#125,#149,#166,#178)) ;
#179=ADVANCED_BREP_SHAPE_REPRESENTATION('NONE',(#21),#16) ;
#70=ADVANCED_FACE('MANIFOLD_SOLID_BREP #208',(#69),#35,.F.) ;
#101=ADVANCED_FACE('MANIFOLD_SOLID_BREP #208',(#100),#75,.F.) ;
#125=ADVANCED_FACE('MANIFOLD_SOLID_BREP #208',(#124),#106,.F.) ;
#149=ADVANCED_FACE('MANIFOLD_SOLID_BREP #208',(#148),#130,.F.) ;
#166=ADVANCED_FACE('MANIFOLD_SOLID_BREP #208',(#165),#154,.F.) ;
#178=ADVANCED_FACE('MANIFOLD_SOLID_BREP #208',(#177),#171,.F.) ;
#4=APPLICATION_PROTOCOL_DEFINITION('international standard','automotive_design',2001,#1) ;
#21=MANIFOLD_SOLID_BREP('MANIFOLD_SOLID_BREP #208',#30) ;
#22=COLOUR_RGB('Colour',0.823529411765,0.823529411765,1.) ;
#190=CONSTRUCTIVE_GEOMETRY_REPRESENTATION('supplemental geometry',(#184),#16) ;
#191=CONSTRUCTIVE_GEOMETRY_REPRESENTATION_RELATIONSHIP('supplemental geometry','',#19,#190) ;
#186=DRAUGHTING_PRE_DEFINED_COLOUR('white') ;
#185=DRAUGHTING_PRE_DEFINED_CURVE_FONT('continuous') ;
#44=EDGE_CURVE('',#41,#43,#39,.T.) ;
#51=EDGE_CURVE('',#43,#50,#48,.T.) ;
#58=EDGE_CURVE('',#57,#50,#55,.T.) ;
#63=EDGE_CURVE('',#41,#57,#62,.T.) ;
#82=EDGE_CURVE('',#81,#50,#79,.T.) ;
#89=EDGE_CURVE('',#43,#88,#86,.T.) ;
#94=EDGE_CURVE('',#88,#81,#93,.T.) ;
#113=EDGE_CURVE('',#112,#81,#110,.T.) ;
#118=EDGE_CURVE('',#57,#112,#117,.T.) ;
#137=EDGE_CURVE('',#136,#41,#134,.T.) ;
#142=EDGE_CURVE('',#136,#112,#141,.T.) ;
#159=EDGE_CURVE('',#136,#88,#158,.T.) ;
#64=EDGE_LOOP('',(#65,#66,#67,#68)) ;
#95=EDGE_LOOP('',(#96,#97,#98,#99)) ;
#119=EDGE_LOOP('',(#120,#121,#122,#123)) ;
#143=EDGE_LOOP('',(#144,#145,#146,#147)) ;
#160=EDGE_LOOP('',(#161,#162,#163,#164)) ;
#172=EDGE_LOOP('',(#173,#174,#175,#176)) ;
#69=FACE_OUTER_BOUND('',#64,.T.) ;
#100=FACE_OUTER_BOUND('',#95,.T.) ;
#124=FACE_OUTER_BOUND('',#119,.T.) ;
#148=FACE_OUTER_BOUND('',#143,.T.) ;
#165=FACE_OUTER_BOUND('',#160,.T.) ;
#177=FACE_OUTER_BOUND('',#172,.T.) ;
#39=LINE('Line',#36,#38) ;
#48=LINE('Line',#45,#47) ;
#55=LINE('Line',#52,#54) ;
#62=LINE('Line',#59,#61) ;
#79=LINE('Line',#76,#78) ;
#86=LINE('Line',#83,#85) ;
#93=LINE('Line',#90,#92) ;
#110=LINE('Line',#107,#109) ;
#117=LINE('Line',#114,#116) ;
#134=LINE('Line',#131,#133) ;
#141=LINE('Line',#138,#140) ;
#158=LINE('Line',#155,#157) ;
#35=PLANE('',#34) ;
#75=PLANE('',#74) ;
#106=PLANE('',#105) ;
#130=PLANE('',#129) ;
#154=PLANE('',#153) ;
#171=PLANE('',#170) ;
#9=PRODUCT_CATEGORY_RELATIONSHIP(' ',' ',#7,#8) ;
#6=PRODUCT_DEFINITION_FORMATION_WITH_SPECIFIED_SOURCE('',' ',#5,.NOT_KNOWN.) ;
#20=SHAPE_DEFINITION_REPRESENTATION(#11,#19) ;
#41=VERTEX_POINT('',#40) ;
#43=VERTEX_POINT('',#42) ;
#50=VERTEX_POINT('',#49) ;
#57=VERTEX_POINT('',#56) ;
#81=VERTEX_POINT('',#80) ;
#88=VERTEX_POINT('',#87) ;
#112=VERTEX_POINT('',#111) ;
#136=VERTEX_POINT('',#135) ;
#12=(LENGTH_UNIT()NAMED_UNIT(*)SI_UNIT(.MILLI.,.METRE.)) ;
#13=(NAMED_UNIT(*)PLANE_ANGLE_UNIT()SI_UNIT($,.RADIAN.)) ;
#14=(NAMED_UNIT(*)SI_UNIT($,.STERADIAN.)SOLID_ANGLE_UNIT()) ;
#16=(GEOMETRIC_REPRESENTATION_CONTEXT(3)GLOBAL_UNCERTAINTY_ASSIGNED_CONTEXT((#15))GLOBAL_UNIT_ASSIGNED_CONTEXT((#12,#13,#14))REPRESENTATION_CONTEXT(' ',' ')) ;
ENDSEC;
END-ISO-10303-21;
