ISO-10303-21;
HEADER;
FILE_DESCRIPTION(('CATIA V5R24 STEP','CAx-IF Rec.Pracs.--- Model Styling and Organization---1.2---2011-12-15'),'2;1');

FILE_NAME ('D1455987_0_1777980000_1777980000.stp','2018-01-19T13:35:00+00:00',('none'),('Weidmueller'),'CATIA Version 5-6 Release 2014 SP4 HF52','CATIA V5 STEP AP214','none');

FILE_SCHEMA(('AUTOMOTIVE_DESIGN { 1 0 10303 214 1 1 1 1 }'));

ENDSEC;
DATA;
#5=PRODUCT('1777980000_GWDR_M50-PO','','',(#2)) ;
#2=PRODUCT_CONTEXT(' ',#1,'mechanical') ;
#1=APPLICATION_CONTEXT('automotive design') ;
#10=PRODUCT_DEFINITION('',' ',#6,#3) ;
#3=PRODUCT_DEFINITION_CONTEXT('part definition',#1,' ') ;
#11=PRODUCT_DEFINITION_SHAPE(' ',' ',#10) ;
#452=MECHANICAL_DESIGN_GEOMETRIC_PRESENTATION_REPRESENTATION(' ',(#78,#122,#145,#216,#234,#266,#298,#316,#334,#363,#395,#413,#436,#449,#29),#16) ;
#19=SHAPE_REPRESENTATION(' ',(#18),#16) ;
#18=AXIS2_PLACEMENT_3D(' ',#17,$,$) ;
#34=AXIS2_PLACEMENT_3D('Torus Axis2P3D',#31,#32,#33) ;
#38=AXIS2_PLACEMENT_3D('Circle Axis2P3D',#36,#37,$) ;
#47=AXIS2_PLACEMENT_3D('Circle Axis2P3D',#45,#46,$) ;
#54=AXIS2_PLACEMENT_3D('Circle Axis2P3D',#52,#53,$) ;
#61=AXIS2_PLACEMENT_3D('Circle Axis2P3D',#59,#60,$) ;
#82=AXIS2_PLACEMENT_3D('Cylinder Axis2P3D',#79,#80,#81) ;
#126=AXIS2_PLACEMENT_3D('Torus Axis2P3D',#123,#124,#125) ;
#130=AXIS2_PLACEMENT_3D('Circle Axis2P3D',#128,#129,$) ;
#135=AXIS2_PLACEMENT_3D('Circle Axis2P3D',#133,#134,$) ;
#149=AXIS2_PLACEMENT_3D('Plane Axis2P3D',#146,#147,#148) ;
#220=AXIS2_PLACEMENT_3D('Cylinder Axis2P3D',#217,#218,#219) ;
#224=AXIS2_PLACEMENT_3D('Circle Axis2P3D',#222,#223,$) ;
#238=AXIS2_PLACEMENT_3D('Torus Axis2P3D',#235,#236,#237) ;
#242=AXIS2_PLACEMENT_3D('Circle Axis2P3D',#240,#241,$) ;
#251=AXIS2_PLACEMENT_3D('Circle Axis2P3D',#249,#250,$) ;
#256=AXIS2_PLACEMENT_3D('Circle Axis2P3D',#254,#255,$) ;
#270=AXIS2_PLACEMENT_3D('Torus Axis2P3D',#267,#268,#269) ;
#274=AXIS2_PLACEMENT_3D('Circle Axis2P3D',#272,#273,$) ;
#281=AXIS2_PLACEMENT_3D('Circle Axis2P3D',#279,#280,$) ;
#288=AXIS2_PLACEMENT_3D('Circle Axis2P3D',#286,#287,$) ;
#302=AXIS2_PLACEMENT_3D('Torus Axis2P3D',#299,#300,#301) ;
#306=AXIS2_PLACEMENT_3D('Circle Axis2P3D',#304,#305,$) ;
#320=AXIS2_PLACEMENT_3D('Torus Axis2P3D',#317,#318,#319) ;
#324=AXIS2_PLACEMENT_3D('Circle Axis2P3D',#322,#323,$) ;
#338=AXIS2_PLACEMENT_3D('Plane Axis2P3D',#335,#336,#337) ;
#346=AXIS2_PLACEMENT_3D('Circle Axis2P3D',#344,#345,$) ;
#355=AXIS2_PLACEMENT_3D('Circle Axis2P3D',#353,#354,$) ;
#367=AXIS2_PLACEMENT_3D('Cylinder Axis2P3D',#364,#365,#366) ;
#378=AXIS2_PLACEMENT_3D('Circle Axis2P3D',#376,#377,$) ;
#399=AXIS2_PLACEMENT_3D('Cylinder Axis2P3D',#396,#397,#398) ;
#403=AXIS2_PLACEMENT_3D('Circle Axis2P3D',#401,#402,$) ;
#417=AXIS2_PLACEMENT_3D('Torus Axis2P3D',#414,#415,#416) ;
#421=AXIS2_PLACEMENT_3D('Circle Axis2P3D',#419,#420,$) ;
#426=AXIS2_PLACEMENT_3D('Circle Axis2P3D',#424,#425,$) ;
#440=AXIS2_PLACEMENT_3D('Torus Axis2P3D',#437,#438,#439) ;
#17=CARTESIAN_POINT(' ',(0.,0.,0.)) ;
#31=CARTESIAN_POINT('Axis2P3D Location',(28.,28.,1.8)) ;
#36=CARTESIAN_POINT('Axis2P3D Location',(28.,28.,1.8)) ;
#40=CARTESIAN_POINT('Vertex',(0.,28.,1.8)) ;
#42=CARTESIAN_POINT('Vertex',(56.,28.,1.8)) ;
#45=CARTESIAN_POINT('Axis2P3D Location',(0.2,28.,1.8)) ;
#49=CARTESIAN_POINT('Vertex',(0.2,28.,2.)) ;
#52=CARTESIAN_POINT('Axis2P3D Location',(28.,28.,2.)) ;
#56=CARTESIAN_POINT('Vertex',(55.8,28.,2.)) ;
#59=CARTESIAN_POINT('Axis2P3D Location',(55.8,28.,1.8)) ;
#79=CARTESIAN_POINT('Axis2P3D Location',(28.,28.,2.)) ;
#84=CARTESIAN_POINT('Line Origine',(56.,28.,2.)) ;
#88=CARTESIAN_POINT('Vertex',(56.,28.,0.199999999255)) ;
#92=CARTESIAN_POINT('Control Point',(4.4408920985E-016,28.,0.199999999255)) ;
#93=CARTESIAN_POINT('Control Point',(-8.80914265144E-016,32.398229715,0.199999999218)) ;
#94=CARTESIAN_POINT('Control Point',(0.863590385095,36.7964594301,0.19999999918)) ;
#95=CARTESIAN_POINT('Control Point',(2.59162463082,40.9683031423,0.199999999143)) ;
#96=CARTESIAN_POINT('Control Point',(7.59035950931,48.4096404907,0.199999999069)) ;
#97=CARTESIAN_POINT('Control Point',(15.0316968577,53.4083753692,0.199999998994)) ;
#98=CARTESIAN_POINT('Control Point',(19.2035405699,55.1364096149,0.199999998957)) ;
#99=CARTESIAN_POINT('Control Point',(28.,56.8635903851,0.199999998882)) ;
#100=CARTESIAN_POINT('Control Point',(36.7964594301,55.1364096149,0.199999998808)) ;
#101=CARTESIAN_POINT('Control Point',(40.9683031423,53.4083753692,0.199999998771)) ;
#102=CARTESIAN_POINT('Control Point',(48.4096404907,48.4096404907,0.199999998696)) ;
#103=CARTESIAN_POINT('Control Point',(53.4083753692,40.9683031423,0.199999998622)) ;
#104=CARTESIAN_POINT('Control Point',(55.1364096149,36.7964594301,0.199999998584)) ;
#105=CARTESIAN_POINT('Control Point',(56.,32.398229715,0.199999998547)) ;
#106=CARTESIAN_POINT('Control Point',(56.,28.,0.19999999851)) ;
#107=CARTESIAN_POINT('Vertex',(0.,28.,0.2)) ;
#110=CARTESIAN_POINT('Line Origine',(0.,28.,2.)) ;
#123=CARTESIAN_POINT('Axis2P3D Location',(28.,28.,1.8)) ;
#128=CARTESIAN_POINT('Axis2P3D Location',(28.,28.,1.8)) ;
#133=CARTESIAN_POINT('Axis2P3D Location',(28.,28.,2.)) ;
#146=CARTESIAN_POINT('Axis2P3D Location',(28.,28.,2.)) ;
#156=CARTESIAN_POINT('Control Point',(53.1999999993,28.,2.)) ;
#157=CARTESIAN_POINT('Control Point',(53.1999999993,25.5408254152,2.)) ;
#158=CARTESIAN_POINT('Control Point',(52.9000228339,23.0816514612,2.)) ;
#159=CARTESIAN_POINT('Control Point',(52.2999028947,20.6708785497,2.)) ;
#160=CARTESIAN_POINT('Control Point',(50.5240481467,16.0452482053,2.)) ;
#161=CARTESIAN_POINT('Control Point',(47.688319094,11.982154304,2.)) ;
#162=CARTESIAN_POINT('Control Point',(46.0280305045,10.134071028,2.)) ;
#163=CARTESIAN_POINT('Control Point',(42.2908625135,6.88081241859,2.)) ;
#164=CARTESIAN_POINT('Control Point',(37.8812360009,4.62132457619,2.)) ;
#165=CARTESIAN_POINT('Control Point',(35.54830072,3.76728537486,2.)) ;
#166=CARTESIAN_POINT('Control Point',(30.7220983448,2.64572982374,2.)) ;
#167=CARTESIAN_POINT('Control Point',(25.767809347,2.71722692553,2.)) ;
#168=CARTESIAN_POINT('Control Point',(23.3067493723,3.05656999589,2.)) ;
#169=CARTESIAN_POINT('Control Point',(18.5179790477,4.32849573211,2.)) ;
#170=CARTESIAN_POINT('Control Point',(14.1753902414,6.71428990127,2.)) ;
#171=CARTESIAN_POINT('Control Point',(12.1606326773,8.16781039225,2.)) ;
#172=CARTESIAN_POINT('Control Point',(8.52702396313,11.5363418391,2.)) ;
#173=CARTESIAN_POINT('Control Point',(5.8097232998,15.6795734919,2.)) ;
#174=CARTESIAN_POINT('Control Point',(4.71152542014,17.9080104293,2.)) ;
#175=CARTESIAN_POINT('Control Point',(3.53899132207,21.2730579211,2.)) ;
#176=CARTESIAN_POINT('Control Point',(2.97295717251,24.769853462,2.)) ;
#177=CARTESIAN_POINT('Control Point',(2.85765199141,25.8438329483,2.)) ;
#178=CARTESIAN_POINT('Control Point',(2.80000000075,26.9219164541,2.)) ;
#179=CARTESIAN_POINT('Control Point',(2.80000000075,28.,2.)) ;
#180=CARTESIAN_POINT('Vertex',(53.1999999993,28.,2.)) ;
#182=CARTESIAN_POINT('Vertex',(2.80000000075,28.,2.)) ;
#186=CARTESIAN_POINT('Control Point',(2.80000000075,28.,2.)) ;
#187=CARTESIAN_POINT('Control Point',(2.80000000075,30.459174585,2.)) ;
#188=CARTESIAN_POINT('Control Point',(3.09997716608,32.9183485392,2.)) ;
#189=CARTESIAN_POINT('Control Point',(3.70009710539,35.3291214496,2.)) ;
#190=CARTESIAN_POINT('Control Point',(5.47595185308,39.9547517951,2.)) ;
#191=CARTESIAN_POINT('Control Point',(8.31168090671,44.0178456964,2.)) ;
#192=CARTESIAN_POINT('Control Point',(9.97196949491,45.8659289715,2.)) ;
#193=CARTESIAN_POINT('Control Point',(13.7091374861,49.1191875812,2.)) ;
#194=CARTESIAN_POINT('Control Point',(18.118763999,51.3786754237,2.)) ;
#195=CARTESIAN_POINT('Control Point',(20.4516992801,52.2327146252,2.)) ;
#196=CARTESIAN_POINT('Control Point',(25.2779016552,53.3542701762,2.)) ;
#197=CARTESIAN_POINT('Control Point',(30.232190653,53.2827730745,2.)) ;
#198=CARTESIAN_POINT('Control Point',(32.6932506277,52.9434300041,2.)) ;
#199=CARTESIAN_POINT('Control Point',(37.4820209524,51.6715042679,2.)) ;
#200=CARTESIAN_POINT('Control Point',(41.8246097587,49.2857100986,2.)) ;
#201=CARTESIAN_POINT('Control Point',(43.8393673226,47.8321896078,2.)) ;
#202=CARTESIAN_POINT('Control Point',(47.4729760369,44.4636581609,2.)) ;
#203=CARTESIAN_POINT('Control Point',(50.1902767003,40.3204265079,2.)) ;
#204=CARTESIAN_POINT('Control Point',(51.2884745798,38.0919895709,2.)) ;
#205=CARTESIAN_POINT('Control Point',(52.461008678,34.7269420787,2.)) ;
#206=CARTESIAN_POINT('Control Point',(53.0270428276,31.2301465373,2.)) ;
#207=CARTESIAN_POINT('Control Point',(53.1423480085,30.1561670524,2.)) ;
#208=CARTESIAN_POINT('Control Point',(53.1999999993,29.0780835463,2.)) ;
#209=CARTESIAN_POINT('Control Point',(53.1999999993,28.,2.)) ;
#217=CARTESIAN_POINT('Axis2P3D Location',(28.,28.,2.)) ;
#222=CARTESIAN_POINT('Axis2P3D Location',(28.,28.,0.199999999255)) ;
#235=CARTESIAN_POINT('Axis2P3D Location',(28.,28.,0.2)) ;
#240=CARTESIAN_POINT('Axis2P3D Location',(28.,28.,0.)) ;
#244=CARTESIAN_POINT('Vertex',(0.2,28.,0.)) ;
#246=CARTESIAN_POINT('Vertex',(55.8,28.,0.)) ;
#249=CARTESIAN_POINT('Axis2P3D Location',(0.2,28.,0.2)) ;
#254=CARTESIAN_POINT('Axis2P3D Location',(55.8,28.,0.2)) ;
#267=CARTESIAN_POINT('Axis2P3D Location',(28.,28.,1.8)) ;
#272=CARTESIAN_POINT('Axis2P3D Location',(2.8,28.,1.8)) ;
#276=CARTESIAN_POINT('Vertex',(3.,28.,1.8)) ;
#279=CARTESIAN_POINT('Axis2P3D Location',(53.2,28.,1.8)) ;
#283=CARTESIAN_POINT('Vertex',(53.,28.,1.8)) ;
#286=CARTESIAN_POINT('Axis2P3D Location',(28.,28.,1.8)) ;
#299=CARTESIAN_POINT('Axis2P3D Location',(28.,28.,1.8)) ;
#304=CARTESIAN_POINT('Axis2P3D Location',(28.,28.,1.8)) ;
#317=CARTESIAN_POINT('Axis2P3D Location',(28.,28.,0.2)) ;
#322=CARTESIAN_POINT('Axis2P3D Location',(28.,28.,0.)) ;
#335=CARTESIAN_POINT('Axis2P3D Location',(28.,28.,0.)) ;
#344=CARTESIAN_POINT('Axis2P3D Location',(28.,28.,0.)) ;
#348=CARTESIAN_POINT('Vertex',(53.1999999993,28.,0.)) ;
#350=CARTESIAN_POINT('Vertex',(2.80000000075,28.,0.)) ;
#353=CARTESIAN_POINT('Axis2P3D Location',(28.,28.,0.)) ;
#364=CARTESIAN_POINT('Axis2P3D Location',(28.,28.,2.)) ;
#369=CARTESIAN_POINT('Line Origine',(53.,28.,2.)) ;
#373=CARTESIAN_POINT('Vertex',(53.,28.,0.199999999255)) ;
#376=CARTESIAN_POINT('Axis2P3D Location',(28.,28.,0.199999999255)) ;
#380=CARTESIAN_POINT('Vertex',(3.,28.,0.199999999255)) ;
#383=CARTESIAN_POINT('Line Origine',(3.,28.,2.)) ;
#396=CARTESIAN_POINT('Axis2P3D Location',(28.,28.,2.)) ;
#401=CARTESIAN_POINT('Axis2P3D Location',(28.,28.,0.199999999255)) ;
#414=CARTESIAN_POINT('Axis2P3D Location',(28.,28.,0.2)) ;
#419=CARTESIAN_POINT('Axis2P3D Location',(2.8,28.,0.2)) ;
#424=CARTESIAN_POINT('Axis2P3D Location',(53.2,28.,0.2)) ;
#437=CARTESIAN_POINT('Axis2P3D Location',(28.,28.,0.2)) ;
#32=DIRECTION('Axis2P3D Direction',(0.,0.,1.)) ;
#33=DIRECTION('Axis2P3D XDirection',(1.,0.,0.)) ;
#37=DIRECTION('Axis2P3D Direction',(0.,0.,1.)) ;
#46=DIRECTION('Axis2P3D Direction',(5.66553889765E-016,1.,-0.)) ;
#53=DIRECTION('Axis2P3D Direction',(0.,0.,1.)) ;
#60=DIRECTION('Axis2P3D Direction',(0.,-1.,0.)) ;
#80=DIRECTION('Axis2P3D Direction',(0.,0.,-1.)) ;
#81=DIRECTION('Axis2P3D XDirection',(-1.,0.,0.)) ;
#85=DIRECTION('Vector Direction',(0.,0.,-1.)) ;
#111=DIRECTION('Vector Direction',(0.,0.,-1.)) ;
#124=DIRECTION('Axis2P3D Direction',(0.,0.,1.)) ;
#125=DIRECTION('Axis2P3D XDirection',(-1.,5.07530525543E-016,0.)) ;
#129=DIRECTION('Axis2P3D Direction',(0.,0.,1.)) ;
#134=DIRECTION('Axis2P3D Direction',(0.,0.,1.)) ;
#147=DIRECTION('Axis2P3D Direction',(0.,0.,1.)) ;
#148=DIRECTION('Axis2P3D XDirection',(1.,0.,0.)) ;
#218=DIRECTION('Axis2P3D Direction',(-0.,0.,-1.)) ;
#219=DIRECTION('Axis2P3D XDirection',(1.,1.22464679915E-016,-0.)) ;
#223=DIRECTION('Axis2P3D Direction',(-0.,0.,-1.)) ;
#236=DIRECTION('Axis2P3D Direction',(0.,0.,1.)) ;
#237=DIRECTION('Axis2P3D XDirection',(1.,0.,0.)) ;
#241=DIRECTION('Axis2P3D Direction',(0.,0.,1.)) ;
#250=DIRECTION('Axis2P3D Direction',(5.66553889765E-016,1.,-0.)) ;
#255=DIRECTION('Axis2P3D Direction',(0.,-1.,0.)) ;
#268=DIRECTION('Axis2P3D Direction',(0.,0.,1.)) ;
#269=DIRECTION('Axis2P3D XDirection',(-1.,5.59482469102E-016,0.)) ;
#273=DIRECTION('Axis2P3D Direction',(5.59482469102E-016,1.,-0.)) ;
#280=DIRECTION('Axis2P3D Direction',(-1.12603635887E-015,-1.,0.)) ;
#287=DIRECTION('Axis2P3D Direction',(0.,0.,1.)) ;
#300=DIRECTION('Axis2P3D Direction',(0.,0.,1.)) ;
#301=DIRECTION('Axis2P3D XDirection',(1.,0.,0.)) ;
#305=DIRECTION('Axis2P3D Direction',(0.,0.,1.)) ;
#318=DIRECTION('Axis2P3D Direction',(0.,0.,1.)) ;
#319=DIRECTION('Axis2P3D XDirection',(-1.,5.14886040406E-016,0.)) ;
#323=DIRECTION('Axis2P3D Direction',(0.,0.,1.)) ;
#336=DIRECTION('Axis2P3D Direction',(0.,0.,1.)) ;
#337=DIRECTION('Axis2P3D XDirection',(1.,0.,0.)) ;
#345=DIRECTION('Axis2P3D Direction',(0.,0.,1.)) ;
#354=DIRECTION('Axis2P3D Direction',(0.,0.,1.)) ;
#365=DIRECTION('Axis2P3D Direction',(-0.,0.,-1.)) ;
#366=DIRECTION('Axis2P3D XDirection',(1.,1.22464679915E-016,-0.)) ;
#370=DIRECTION('Vector Direction',(0.,0.,-1.)) ;
#377=DIRECTION('Axis2P3D Direction',(-0.,0.,-1.)) ;
#384=DIRECTION('Vector Direction',(0.,0.,-1.)) ;
#397=DIRECTION('Axis2P3D Direction',(0.,0.,-1.)) ;
#398=DIRECTION('Axis2P3D XDirection',(-1.,0.,0.)) ;
#402=DIRECTION('Axis2P3D Direction',(0.,0.,-1.)) ;
#415=DIRECTION('Axis2P3D Direction',(0.,0.,1.)) ;
#416=DIRECTION('Axis2P3D XDirection',(1.,0.,0.)) ;
#420=DIRECTION('Axis2P3D Direction',(5.66553889765E-016,1.,-0.)) ;
#425=DIRECTION('Axis2P3D Direction',(0.,-1.,0.)) ;
#438=DIRECTION('Axis2P3D Direction',(0.,0.,1.)) ;
#439=DIRECTION('Axis2P3D XDirection',(-1.,5.68434188608E-016,0.)) ;
#8=PRODUCT_RELATED_PRODUCT_CATEGORY('part',$,(#5)) ;
#7=PRODUCT_CATEGORY('part','specification') ;
#29=STYLED_ITEM(' ',(#28),#21) ;
#28=PRESENTATION_STYLE_ASSIGNMENT((#27)) ;
#77=PRESENTATION_STYLE_ASSIGNMENT((#76)) ;
#27=SURFACE_STYLE_USAGE(.BOTH.,#26) ;
#76=SURFACE_STYLE_USAGE(.BOTH.,#75) ;
#26=SURFACE_SIDE_STYLE(' ',(#25)) ;
#75=SURFACE_SIDE_STYLE(' ',(#74)) ;
#25=SURFACE_STYLE_FILL_AREA(#24) ;
#74=SURFACE_STYLE_FILL_AREA(#73) ;
#24=FILL_AREA_STYLE(' ',(#23)) ;
#73=FILL_AREA_STYLE(' ',(#72)) ;
#23=FILL_AREA_STYLE_COLOUR(' ',#22) ;
#72=FILL_AREA_STYLE_COLOUR(' ',#71) ;
#86=VECTOR('Line Direction',#85,1.) ;
#112=VECTOR('Line Direction',#111,1.) ;
#371=VECTOR('Line Direction',#370,1.) ;
#385=VECTOR('Line Direction',#384,1.) ;
#15=UNCERTAINTY_MEASURE_WITH_UNIT(LENGTH_MEASURE(0.005),#12,'distance_accuracy_value','CONFUSED CURVE UNCERTAINTY') ;
#451=SHAPE_REPRESENTATION_RELATIONSHIP(' ',' ',#19,#450) ;
#65=ORIENTED_EDGE('',*,*,#44,.F.) ;
#66=ORIENTED_EDGE('',*,*,#51,.T.) ;
#67=ORIENTED_EDGE('',*,*,#58,.F.) ;
#68=ORIENTED_EDGE('',*,*,#63,.F.) ;
#116=ORIENTED_EDGE('',*,*,#44,.T.) ;
#117=ORIENTED_EDGE('',*,*,#90,.T.) ;
#118=ORIENTED_EDGE('',*,*,#109,.T.) ;
#119=ORIENTED_EDGE('',*,*,#114,.F.) ;
#139=ORIENTED_EDGE('',*,*,#51,.F.) ;
#140=ORIENTED_EDGE('',*,*,#132,.F.) ;
#141=ORIENTED_EDGE('',*,*,#63,.T.) ;
#142=ORIENTED_EDGE('',*,*,#137,.F.) ;
#152=ORIENTED_EDGE('',*,*,#58,.T.) ;
#153=ORIENTED_EDGE('',*,*,#137,.T.) ;
#212=ORIENTED_EDGE('',*,*,#184,.T.) ;
#213=ORIENTED_EDGE('',*,*,#210,.T.) ;
#228=ORIENTED_EDGE('',*,*,#90,.F.) ;
#229=ORIENTED_EDGE('',*,*,#132,.T.) ;
#230=ORIENTED_EDGE('',*,*,#114,.T.) ;
#231=ORIENTED_EDGE('',*,*,#226,.T.) ;
#260=ORIENTED_EDGE('',*,*,#248,.F.) ;
#261=ORIENTED_EDGE('',*,*,#253,.T.) ;
#262=ORIENTED_EDGE('',*,*,#109,.F.) ;
#263=ORIENTED_EDGE('',*,*,#258,.F.) ;
#292=ORIENTED_EDGE('',*,*,#278,.F.) ;
#293=ORIENTED_EDGE('',*,*,#184,.F.) ;
#294=ORIENTED_EDGE('',*,*,#285,.T.) ;
#295=ORIENTED_EDGE('',*,*,#290,.F.) ;
#310=ORIENTED_EDGE('',*,*,#210,.F.) ;
#311=ORIENTED_EDGE('',*,*,#278,.T.) ;
#312=ORIENTED_EDGE('',*,*,#308,.F.) ;
#313=ORIENTED_EDGE('',*,*,#285,.F.) ;
#328=ORIENTED_EDGE('',*,*,#253,.F.) ;
#329=ORIENTED_EDGE('',*,*,#326,.F.) ;
#330=ORIENTED_EDGE('',*,*,#258,.T.) ;
#331=ORIENTED_EDGE('',*,*,#226,.F.) ;
#341=ORIENTED_EDGE('',*,*,#326,.T.) ;
#342=ORIENTED_EDGE('',*,*,#248,.T.) ;
#359=ORIENTED_EDGE('',*,*,#352,.T.) ;
#360=ORIENTED_EDGE('',*,*,#357,.T.) ;
#389=ORIENTED_EDGE('',*,*,#290,.T.) ;
#390=ORIENTED_EDGE('',*,*,#375,.T.) ;
#391=ORIENTED_EDGE('',*,*,#382,.T.) ;
#392=ORIENTED_EDGE('',*,*,#387,.F.) ;
#407=ORIENTED_EDGE('',*,*,#375,.F.) ;
#408=ORIENTED_EDGE('',*,*,#308,.T.) ;
#409=ORIENTED_EDGE('',*,*,#387,.T.) ;
#410=ORIENTED_EDGE('',*,*,#405,.T.) ;
#430=ORIENTED_EDGE('',*,*,#405,.F.) ;
#431=ORIENTED_EDGE('',*,*,#423,.T.) ;
#432=ORIENTED_EDGE('',*,*,#352,.F.) ;
#433=ORIENTED_EDGE('',*,*,#428,.F.) ;
#443=ORIENTED_EDGE('',*,*,#423,.F.) ;
#444=ORIENTED_EDGE('',*,*,#382,.F.) ;
#445=ORIENTED_EDGE('',*,*,#428,.T.) ;
#446=ORIENTED_EDGE('',*,*,#357,.F.) ;
#214=FACE_BOUND('',#211,.T.) ;
#361=FACE_BOUND('',#358,.T.) ;
#30=CLOSED_SHELL('Closed Shell',(#70,#121,#144,#215,#233,#265,#297,#315,#333,#362,#394,#412,#435,#448)) ;
#450=ADVANCED_BREP_SHAPE_REPRESENTATION('NONE',(#21),#16) ;
#70=ADVANCED_FACE('Verrundung1',(#69),#35,.T.) ;
#121=ADVANCED_FACE('Verrundung1',(#120),#83,.T.) ;
#144=ADVANCED_FACE('Verrundung1',(#143),#127,.T.) ;
#215=ADVANCED_FACE('Verrundung1',(#154,#214),#150,.T.) ;
#233=ADVANCED_FACE('Verrundung1',(#232),#221,.T.) ;
#265=ADVANCED_FACE('Verrundung1',(#264),#239,.T.) ;
#297=ADVANCED_FACE('Verrundung1',(#296),#271,.T.) ;
#315=ADVANCED_FACE('Verrundung1',(#314),#303,.T.) ;
#333=ADVANCED_FACE('Verrundung1',(#332),#321,.T.) ;
#362=ADVANCED_FACE('Verrundung1',(#343,#361),#339,.F.) ;
#394=ADVANCED_FACE('Verrundung1',(#393),#368,.F.) ;
#412=ADVANCED_FACE('Verrundung1',(#411),#400,.F.) ;
#435=ADVANCED_FACE('Verrundung1',(#434),#418,.T.) ;
#448=ADVANCED_FACE('Verrundung1',(#447),#441,.T.) ;
#4=APPLICATION_PROTOCOL_DEFINITION('international standard','automotive_design',2001,#1) ;
#91=B_SPLINE_CURVE_WITH_KNOTS('',5,(#92,#93,#94,#95,#96,#97,#98,#99,#100,#101,#102,#103,#104,#105,#106),.UNSPECIFIED.,.F.,.U.,(6,3,3,3,6),(-43.9822971503,-21.9911485751,0.,21.9911485751,43.9822971503),.UNSPECIFIED.) ;
#155=B_SPLINE_CURVE_WITH_KNOTS('',5,(#156,#157,#158,#159,#160,#161,#162,#163,#164,#165,#166,#167,#168,#169,#170,#171,#172,#173,#174,#175,#176,#177,#178,#179),.UNSPECIFIED.,.F.,.U.,(6,3,3,3,3,3,3,6),(0.,17.4300275585,34.8600551085,52.2900826593,69.7201102304,87.1501378245,104.58016545,112.221357756),.UNSPECIFIED.) ;
#185=B_SPLINE_CURVE_WITH_KNOTS('',5,(#186,#187,#188,#189,#190,#191,#192,#193,#194,#195,#196,#197,#198,#199,#200,#201,#202,#203,#204,#205,#206,#207,#208,#209),.UNSPECIFIED.,.F.,.U.,(6,3,3,3,3,3,3,6),(0.,17.4300275601,34.8600551129,52.2900826632,69.7201102345,87.150137829,104.580165455,112.221357763),.UNSPECIFIED.) ;
#21=MANIFOLD_SOLID_BREP('Verrundung1',#30) ;
#39=CIRCLE('generated circle',#38,28.) ;
#48=CIRCLE('generated circle',#47,0.2) ;
#55=CIRCLE('generated circle',#54,27.8) ;
#62=CIRCLE('generated circle',#61,0.2) ;
#131=CIRCLE('generated circle',#130,28.) ;
#136=CIRCLE('generated circle',#135,27.8) ;
#225=CIRCLE('generated circle',#224,28.) ;
#243=CIRCLE('generated circle',#242,27.8) ;
#252=CIRCLE('generated circle',#251,0.2) ;
#257=CIRCLE('generated circle',#256,0.2) ;
#275=CIRCLE('generated circle',#274,0.2) ;
#282=CIRCLE('generated circle',#281,0.2) ;
#289=CIRCLE('generated circle',#288,25.) ;
#307=CIRCLE('generated circle',#306,25.) ;
#325=CIRCLE('generated circle',#324,27.8) ;
#347=CIRCLE('generated circle',#346,25.1999999993) ;
#356=CIRCLE('generated circle',#355,25.1999999993) ;
#379=CIRCLE('generated circle',#378,25.) ;
#404=CIRCLE('generated circle',#403,25.) ;
#422=CIRCLE('generated circle',#421,0.2) ;
#427=CIRCLE('generated circle',#426,0.2) ;
#22=COLOUR_RGB('Colour',0.823529411765,0.823529411765,1.) ;
#71=COLOUR_RGB('Colour',0.760784313725,0.749019607843,0.721568627451) ;
#78=OVER_RIDING_STYLED_ITEM(' ',(#77),#70,#29) ;
#122=OVER_RIDING_STYLED_ITEM(' ',(#77),#121,#29) ;
#145=OVER_RIDING_STYLED_ITEM(' ',(#77),#144,#29) ;
#216=OVER_RIDING_STYLED_ITEM(' ',(#77),#215,#29) ;
#234=OVER_RIDING_STYLED_ITEM(' ',(#77),#233,#29) ;
#266=OVER_RIDING_STYLED_ITEM(' ',(#77),#265,#29) ;
#298=OVER_RIDING_STYLED_ITEM(' ',(#77),#297,#29) ;
#316=OVER_RIDING_STYLED_ITEM(' ',(#77),#315,#29) ;
#334=OVER_RIDING_STYLED_ITEM(' ',(#77),#333,#29) ;
#363=OVER_RIDING_STYLED_ITEM(' ',(#77),#362,#29) ;
#395=OVER_RIDING_STYLED_ITEM(' ',(#77),#394,#29) ;
#413=OVER_RIDING_STYLED_ITEM(' ',(#77),#412,#29) ;
#436=OVER_RIDING_STYLED_ITEM(' ',(#77),#435,#29) ;
#449=OVER_RIDING_STYLED_ITEM(' ',(#77),#448,#29) ;
#83=CYLINDRICAL_SURFACE('generated cylinder',#82,28.) ;
#221=CYLINDRICAL_SURFACE('generated cylinder',#220,28.) ;
#368=CYLINDRICAL_SURFACE('generated cylinder',#367,25.) ;
#400=CYLINDRICAL_SURFACE('generated cylinder',#399,25.) ;
#35=TOROIDAL_SURFACE('homeo Torus',#34,27.8,0.2) ;
#127=TOROIDAL_SURFACE('homeo Torus',#126,27.8,0.2) ;
#239=TOROIDAL_SURFACE('homeo Torus',#238,27.8,0.2) ;
#271=TOROIDAL_SURFACE('homeo Torus',#270,25.2,0.2) ;
#303=TOROIDAL_SURFACE('homeo Torus',#302,25.2,0.2) ;
#321=TOROIDAL_SURFACE('homeo Torus',#320,27.8,0.2) ;
#418=TOROIDAL_SURFACE('homeo Torus',#417,25.2,0.2) ;
#441=TOROIDAL_SURFACE('homeo Torus',#440,25.2,0.2) ;
#44=EDGE_CURVE('',#41,#43,#39,.F.) ;
#51=EDGE_CURVE('',#41,#50,#48,.T.) ;
#58=EDGE_CURVE('',#57,#50,#55,.T.) ;
#63=EDGE_CURVE('',#43,#57,#62,.T.) ;
#90=EDGE_CURVE('',#43,#89,#87,.T.) ;
#109=EDGE_CURVE('',#89,#108,#91,.F.) ;
#114=EDGE_CURVE('',#41,#108,#113,.T.) ;
#132=EDGE_CURVE('',#43,#41,#131,.F.) ;
#137=EDGE_CURVE('',#50,#57,#136,.T.) ;
#184=EDGE_CURVE('',#181,#183,#155,.T.) ;
#210=EDGE_CURVE('',#183,#181,#185,.T.) ;
#226=EDGE_CURVE('',#108,#89,#225,.F.) ;
#248=EDGE_CURVE('',#245,#247,#243,.F.) ;
#253=EDGE_CURVE('',#245,#108,#252,.T.) ;
#258=EDGE_CURVE('',#247,#89,#257,.T.) ;
#278=EDGE_CURVE('',#183,#277,#275,.T.) ;
#285=EDGE_CURVE('',#181,#284,#282,.T.) ;
#290=EDGE_CURVE('',#277,#284,#289,.T.) ;
#308=EDGE_CURVE('',#284,#277,#307,.T.) ;
#326=EDGE_CURVE('',#247,#245,#325,.F.) ;
#352=EDGE_CURVE('',#349,#351,#347,.T.) ;
#357=EDGE_CURVE('',#351,#349,#356,.T.) ;
#375=EDGE_CURVE('',#284,#374,#372,.T.) ;
#382=EDGE_CURVE('',#374,#381,#379,.T.) ;
#387=EDGE_CURVE('',#277,#381,#386,.T.) ;
#405=EDGE_CURVE('',#381,#374,#404,.T.) ;
#423=EDGE_CURVE('',#381,#351,#422,.T.) ;
#428=EDGE_CURVE('',#374,#349,#427,.T.) ;
#64=EDGE_LOOP('',(#65,#66,#67,#68)) ;
#115=EDGE_LOOP('',(#116,#117,#118,#119)) ;
#138=EDGE_LOOP('',(#139,#140,#141,#142)) ;
#151=EDGE_LOOP('',(#152,#153)) ;
#211=EDGE_LOOP('',(#212,#213)) ;
#227=EDGE_LOOP('',(#228,#229,#230,#231)) ;
#259=EDGE_LOOP('',(#260,#261,#262,#263)) ;
#291=EDGE_LOOP('',(#292,#293,#294,#295)) ;
#309=EDGE_LOOP('',(#310,#311,#312,#313)) ;
#327=EDGE_LOOP('',(#328,#329,#330,#331)) ;
#340=EDGE_LOOP('',(#341,#342)) ;
#358=EDGE_LOOP('',(#359,#360)) ;
#388=EDGE_LOOP('',(#389,#390,#391,#392)) ;
#406=EDGE_LOOP('',(#407,#408,#409,#410)) ;
#429=EDGE_LOOP('',(#430,#431,#432,#433)) ;
#442=EDGE_LOOP('',(#443,#444,#445,#446)) ;
#69=FACE_OUTER_BOUND('',#64,.T.) ;
#120=FACE_OUTER_BOUND('',#115,.T.) ;
#143=FACE_OUTER_BOUND('',#138,.T.) ;
#154=FACE_OUTER_BOUND('',#151,.T.) ;
#232=FACE_OUTER_BOUND('',#227,.T.) ;
#264=FACE_OUTER_BOUND('',#259,.T.) ;
#296=FACE_OUTER_BOUND('',#291,.T.) ;
#314=FACE_OUTER_BOUND('',#309,.T.) ;
#332=FACE_OUTER_BOUND('',#327,.T.) ;
#343=FACE_OUTER_BOUND('',#340,.T.) ;
#393=FACE_OUTER_BOUND('',#388,.T.) ;
#411=FACE_OUTER_BOUND('',#406,.T.) ;
#434=FACE_OUTER_BOUND('',#429,.T.) ;
#447=FACE_OUTER_BOUND('',#442,.T.) ;
#87=LINE('Line',#84,#86) ;
#113=LINE('Line',#110,#112) ;
#372=LINE('Line',#369,#371) ;
#386=LINE('Line',#383,#385) ;
#150=PLANE('',#149) ;
#339=PLANE('',#338) ;
#9=PRODUCT_CATEGORY_RELATIONSHIP(' ',' ',#7,#8) ;
#6=PRODUCT_DEFINITION_FORMATION_WITH_SPECIFIED_SOURCE('',' ',#5,.NOT_KNOWN.) ;
#20=SHAPE_DEFINITION_REPRESENTATION(#11,#19) ;
#41=VERTEX_POINT('',#40) ;
#43=VERTEX_POINT('',#42) ;
#50=VERTEX_POINT('',#49) ;
#57=VERTEX_POINT('',#56) ;
#89=VERTEX_POINT('',#88) ;
#108=VERTEX_POINT('',#107) ;
#181=VERTEX_POINT('',#180) ;
#183=VERTEX_POINT('',#182) ;
#245=VERTEX_POINT('',#244) ;
#247=VERTEX_POINT('',#246) ;
#277=VERTEX_POINT('',#276) ;
#284=VERTEX_POINT('',#283) ;
#349=VERTEX_POINT('',#348) ;
#351=VERTEX_POINT('',#350) ;
#374=VERTEX_POINT('',#373) ;
#381=VERTEX_POINT('',#380) ;
#12=(LENGTH_UNIT()NAMED_UNIT(*)SI_UNIT(.MILLI.,.METRE.)) ;
#13=(NAMED_UNIT(*)PLANE_ANGLE_UNIT()SI_UNIT($,.RADIAN.)) ;
#14=(NAMED_UNIT(*)SI_UNIT($,.STERADIAN.)SOLID_ANGLE_UNIT()) ;
#16=(GEOMETRIC_REPRESENTATION_CONTEXT(3)GLOBAL_UNCERTAINTY_ASSIGNED_CONTEXT((#15))GLOBAL_UNIT_ASSIGNED_CONTEXT((#12,#13,#14))REPRESENTATION_CONTEXT(' ',' ')) ;
ENDSEC;
END-ISO-10303-21;
