ISO-10303-21;
HEADER;
FILE_DESCRIPTION(('CATIA V5R20 STEP214','CAx-IF Rec.Pracs.--- Model Styling and Organization---1.2---2011-12-15'),'2;1');

FILE_NAME ('D1445913_0_0373000000_0373000000.stp','2018-01-23T14:08:07+00:00',('none'),('Weidmueller'),'CATIA Version 5-6 Release 2014 SP4 HF52','CATIA V5 STEP AP214','none');

FILE_SCHEMA(('AUTOMOTIVE_DESIGN { 1 0 10303 214 1 1 1 1 }'));

ENDSEC;
DATA;
#5=PRODUCT('373000000_H2,5-7','','Aderendh\X2\00FC\X0\lse mit Kunststoffkragen',(#2)) ;
#2=PRODUCT_CONTEXT(' ',#1,'mechanical') ;
#1=APPLICATION_CONTEXT('automotive design') ;
#10=PRODUCT_DEFINITION('',' ',#6,#3) ;
#3=PRODUCT_DEFINITION_CONTEXT('part definition',#1,' ') ;
#11=PRODUCT_DEFINITION_SHAPE(' ',' ',#10) ;
#369=MECHANICAL_DESIGN_GEOMETRIC_PRESENTATION_REPRESENTATION(' ',(#79,#97,#138,#156,#171,#203,#216,#248,#261,#302,#320,#343,#351,#366,#29),#16) ;
#19=SHAPE_REPRESENTATION(' ',(#18),#16) ;
#18=AXIS2_PLACEMENT_3D(' ',#17,$,$) ;
#35=AXIS2_PLACEMENT_3D('Cylinder Axis2P3D',#32,#33,#34) ;
#39=AXIS2_PLACEMENT_3D('Circle Axis2P3D',#37,#38,$) ;
#55=AXIS2_PLACEMENT_3D('Circle Axis2P3D',#53,#54,$) ;
#82=AXIS2_PLACEMENT_3D('Circle Axis2P3D',#80,#81,$) ;
#87=AXIS2_PLACEMENT_3D('Circle Axis2P3D',#85,#86,$) ;
#101=AXIS2_PLACEMENT_3D('Cylinder Axis2P3D',#98,#99,#100) ;
#114=AXIS2_PLACEMENT_3D('Circle Axis2P3D',#112,#113,$) ;
#128=AXIS2_PLACEMENT_3D('Circle Axis2P3D',#126,#127,$) ;
#141=AXIS2_PLACEMENT_3D('Circle Axis2P3D',#139,#140,$) ;
#146=AXIS2_PLACEMENT_3D('Circle Axis2P3D',#144,#145,$) ;
#160=AXIS2_PLACEMENT_3D('Plane Axis2P3D',#157,#158,#159) ;
#175=AXIS2_PLACEMENT_3D('Cone Axis2P3D',#172,#173,#174) ;
#186=AXIS2_PLACEMENT_3D('Circle Axis2P3D',#184,#185,$) ;
#206=AXIS2_PLACEMENT_3D('Circle Axis2P3D',#204,#205,$) ;
#220=AXIS2_PLACEMENT_3D('Cylinder Axis2P3D',#217,#218,#219) ;
#231=AXIS2_PLACEMENT_3D('Circle Axis2P3D',#229,#230,$) ;
#251=AXIS2_PLACEMENT_3D('Circle Axis2P3D',#249,#250,$) ;
#265=AXIS2_PLACEMENT_3D('Cylinder Axis2P3D',#262,#263,#264) ;
#269=AXIS2_PLACEMENT_3D('Circle Axis2P3D',#267,#268,$) ;
#285=AXIS2_PLACEMENT_3D('Circle Axis2P3D',#283,#284,$) ;
#305=AXIS2_PLACEMENT_3D('Circle Axis2P3D',#303,#304,$) ;
#310=AXIS2_PLACEMENT_3D('Circle Axis2P3D',#308,#309,$) ;
#324=AXIS2_PLACEMENT_3D('Cone Axis2P3D',#321,#322,#323) ;
#355=AXIS2_PLACEMENT_3D('Plane Axis2P3D',#352,#353,#354) ;
#17=CARTESIAN_POINT(' ',(0.,0.,0.)) ;
#32=CARTESIAN_POINT('Axis2P3D Location',(1.85,1.85,4.10000000002)) ;
#37=CARTESIAN_POINT('Axis2P3D Location',(1.85,1.85,7.)) ;
#41=CARTESIAN_POINT('Vertex',(2.44928192326,0.753021797637,7.)) ;
#43=CARTESIAN_POINT('Vertex',(1.25071807674,2.94697820236,7.)) ;
#46=CARTESIAN_POINT('Line Origine',(2.44928192326,0.753021797637,4.1)) ;
#50=CARTESIAN_POINT('Vertex',(2.44928192326,0.753021797637,1.2)) ;
#53=CARTESIAN_POINT('Axis2P3D Location',(1.85,1.85,1.2)) ;
#57=CARTESIAN_POINT('Vertex',(1.25071807674,2.94697820236,1.2)) ;
#60=CARTESIAN_POINT('Line Origine',(1.25071807674,2.94697820236,4.1)) ;
#80=CARTESIAN_POINT('Axis2P3D Location',(1.85,1.85,7.)) ;
#85=CARTESIAN_POINT('Axis2P3D Location',(1.85,1.85,1.2)) ;
#98=CARTESIAN_POINT('Axis2P3D Location',(1.85,1.85,4.10000000002)) ;
#103=CARTESIAN_POINT('Line Origine',(2.37736809246,0.884659181921,4.1)) ;
#107=CARTESIAN_POINT('Vertex',(2.37736809246,0.884659181921,1.16331574343)) ;
#109=CARTESIAN_POINT('Vertex',(2.37736809246,0.884659181921,7.)) ;
#112=CARTESIAN_POINT('Axis2P3D Location',(1.85,1.85,7.)) ;
#116=CARTESIAN_POINT('Vertex',(1.32263190754,2.81534081808,7.)) ;
#119=CARTESIAN_POINT('Line Origine',(1.32263190754,2.81534081808,4.1)) ;
#123=CARTESIAN_POINT('Vertex',(1.32263190754,2.81534081808,1.16331574343)) ;
#126=CARTESIAN_POINT('Axis2P3D Location',(1.85,1.85,1.16331574343)) ;
#139=CARTESIAN_POINT('Axis2P3D Location',(1.85,1.85,7.)) ;
#144=CARTESIAN_POINT('Axis2P3D Location',(1.85,1.85,1.16331574343)) ;
#157=CARTESIAN_POINT('Axis2P3D Location',(1.85,0.6,7.)) ;
#172=CARTESIAN_POINT('Axis2P3D Location',(1.85,1.85,1.2)) ;
#177=CARTESIAN_POINT('Line Origine',(2.59310958484,0.48974702907,0.623342128286)) ;
#181=CARTESIAN_POINT('Vertex',(2.73693724642,0.226472260503,0.0466842565713)) ;
#184=CARTESIAN_POINT('Axis2P3D Location',(1.85,1.85,0.0466842565713)) ;
#188=CARTESIAN_POINT('Vertex',(0.963062753582,3.4735277395,0.0466842565713)) ;
#191=CARTESIAN_POINT('Line Origine',(1.10689041516,3.21025297093,0.623342128286)) ;
#204=CARTESIAN_POINT('Axis2P3D Location',(1.85,1.85,0.0466842565713)) ;
#217=CARTESIAN_POINT('Axis2P3D Location',(1.85,1.85,0.600000000023)) ;
#222=CARTESIAN_POINT('Line Origine',(2.73693724642,0.226472260503,0.0233421282856)) ;
#226=CARTESIAN_POINT('Vertex',(2.73693724642,0.226472260503,8.881784197E-016)) ;
#229=CARTESIAN_POINT('Axis2P3D Location',(1.85,1.85,8.881784197E-016)) ;
#233=CARTESIAN_POINT('Vertex',(0.963062753582,3.4735277395,8.881784197E-016)) ;
#236=CARTESIAN_POINT('Line Origine',(0.963062753582,3.4735277395,0.0233421282856)) ;
#249=CARTESIAN_POINT('Axis2P3D Location',(1.85,1.85,8.881784197E-016)) ;
#262=CARTESIAN_POINT('Axis2P3D Location',(1.85,1.85,0.600000000023)) ;
#267=CARTESIAN_POINT('Axis2P3D Location',(1.85,1.85,8.881784197E-016)) ;
#271=CARTESIAN_POINT('Vertex',(2.66502341563,0.358109644786,2.55351295664E-015)) ;
#273=CARTESIAN_POINT('Vertex',(1.03497658437,3.34189035521,2.55351295664E-015)) ;
#276=CARTESIAN_POINT('Line Origine',(2.66502341563,0.358109644786,0.005)) ;
#280=CARTESIAN_POINT('Vertex',(2.66502341563,0.358109644786,0.01)) ;
#283=CARTESIAN_POINT('Axis2P3D Location',(1.85,1.85,0.01)) ;
#287=CARTESIAN_POINT('Vertex',(1.03497658437,3.34189035521,0.01)) ;
#290=CARTESIAN_POINT('Line Origine',(1.03497658437,3.34189035521,0.005)) ;
#303=CARTESIAN_POINT('Axis2P3D Location',(1.85,1.85,8.881784197E-016)) ;
#308=CARTESIAN_POINT('Axis2P3D Location',(1.85,1.85,0.01)) ;
#321=CARTESIAN_POINT('Axis2P3D Location',(1.85,1.85,1.16331574343)) ;
#326=CARTESIAN_POINT('Line Origine',(2.52119575405,0.621384413354,0.586657871714)) ;
#331=CARTESIAN_POINT('Line Origine',(1.17880424595,3.07861558665,0.586657871714)) ;
#352=CARTESIAN_POINT('Axis2P3D Location',(1.85,0.,8.881784197E-016)) ;
#33=DIRECTION('Axis2P3D Direction',(0.,0.,1.)) ;
#34=DIRECTION('Axis2P3D XDirection',(0.479425538604,-0.87758256189,0.)) ;
#38=DIRECTION('Axis2P3D Direction',(0.,0.,1.)) ;
#47=DIRECTION('Vector Direction',(0.,0.,1.)) ;
#54=DIRECTION('Axis2P3D Direction',(0.,0.,1.)) ;
#61=DIRECTION('Vector Direction',(0.,0.,1.)) ;
#81=DIRECTION('Axis2P3D Direction',(0.,0.,1.)) ;
#86=DIRECTION('Axis2P3D Direction',(0.,0.,1.)) ;
#99=DIRECTION('Axis2P3D Direction',(0.,0.,1.)) ;
#100=DIRECTION('Axis2P3D XDirection',(0.479425538604,-0.87758256189,0.)) ;
#104=DIRECTION('Vector Direction',(0.,0.,1.)) ;
#113=DIRECTION('Axis2P3D Direction',(0.,0.,1.)) ;
#120=DIRECTION('Vector Direction',(0.,0.,1.)) ;
#127=DIRECTION('Axis2P3D Direction',(0.,0.,1.)) ;
#140=DIRECTION('Axis2P3D Direction',(0.,0.,1.)) ;
#145=DIRECTION('Axis2P3D Direction',(0.,0.,1.)) ;
#158=DIRECTION('Axis2P3D Direction',(0.,0.,1.)) ;
#159=DIRECTION('Axis2P3D XDirection',(1.,0.,0.)) ;
#173=DIRECTION('Axis2P3D Direction',(-0.,-0.,-1.)) ;
#174=DIRECTION('Axis2P3D XDirection',(0.479425538604,-0.87758256189,0.)) ;
#178=DIRECTION('Vector Direction',(0.221264343928,-0.405021664813,-0.887129946027)) ;
#185=DIRECTION('Axis2P3D Direction',(0.,0.,-1.)) ;
#192=DIRECTION('Vector Direction',(-0.221264343928,0.405021664813,-0.887129946027)) ;
#205=DIRECTION('Axis2P3D Direction',(0.,0.,-1.)) ;
#218=DIRECTION('Axis2P3D Direction',(0.,0.,1.)) ;
#219=DIRECTION('Axis2P3D XDirection',(0.479425538604,-0.87758256189,0.)) ;
#223=DIRECTION('Vector Direction',(0.,0.,1.)) ;
#230=DIRECTION('Axis2P3D Direction',(0.,0.,1.)) ;
#237=DIRECTION('Vector Direction',(0.,0.,1.)) ;
#250=DIRECTION('Axis2P3D Direction',(0.,0.,1.)) ;
#263=DIRECTION('Axis2P3D Direction',(0.,0.,1.)) ;
#264=DIRECTION('Axis2P3D XDirection',(0.479425538604,-0.87758256189,0.)) ;
#268=DIRECTION('Axis2P3D Direction',(0.,0.,1.)) ;
#277=DIRECTION('Vector Direction',(0.,0.,1.)) ;
#284=DIRECTION('Axis2P3D Direction',(0.,0.,1.)) ;
#291=DIRECTION('Vector Direction',(0.,0.,1.)) ;
#304=DIRECTION('Axis2P3D Direction',(0.,0.,1.)) ;
#309=DIRECTION('Axis2P3D Direction',(0.,0.,1.)) ;
#322=DIRECTION('Axis2P3D Direction',(-0.,-0.,-1.)) ;
#323=DIRECTION('Axis2P3D XDirection',(0.479425538604,-0.87758256189,0.)) ;
#327=DIRECTION('Vector Direction',(0.221264343928,-0.405021664813,-0.887129946027)) ;
#332=DIRECTION('Vector Direction',(-0.221264343928,0.405021664813,-0.887129946027)) ;
#353=DIRECTION('Axis2P3D Direction',(0.,0.,1.)) ;
#354=DIRECTION('Axis2P3D XDirection',(1.,0.,0.)) ;
#30=PRESENTATION_LAYER_ASSIGNMENT('41',' ',(#21)) ;
#8=PRODUCT_RELATED_PRODUCT_CATEGORY('part',$,(#5)) ;
#7=PRODUCT_CATEGORY('part','specification') ;
#29=STYLED_ITEM(' ',(#28),#21) ;
#28=PRESENTATION_STYLE_ASSIGNMENT((#27)) ;
#78=PRESENTATION_STYLE_ASSIGNMENT((#77)) ;
#27=SURFACE_STYLE_USAGE(.BOTH.,#26) ;
#77=SURFACE_STYLE_USAGE(.BOTH.,#76) ;
#26=SURFACE_SIDE_STYLE(' ',(#25)) ;
#76=SURFACE_SIDE_STYLE(' ',(#75)) ;
#25=SURFACE_STYLE_FILL_AREA(#24) ;
#75=SURFACE_STYLE_FILL_AREA(#74) ;
#24=FILL_AREA_STYLE(' ',(#23)) ;
#74=FILL_AREA_STYLE(' ',(#73)) ;
#23=FILL_AREA_STYLE_COLOUR(' ',#22) ;
#73=FILL_AREA_STYLE_COLOUR(' ',#72) ;
#48=VECTOR('Line Direction',#47,1.) ;
#62=VECTOR('Line Direction',#61,1.) ;
#105=VECTOR('Line Direction',#104,1.) ;
#121=VECTOR('Line Direction',#120,1.) ;
#179=VECTOR('Line Direction',#178,1.) ;
#193=VECTOR('Line Direction',#192,1.) ;
#224=VECTOR('Line Direction',#223,1.) ;
#238=VECTOR('Line Direction',#237,1.) ;
#278=VECTOR('Line Direction',#277,1.) ;
#292=VECTOR('Line Direction',#291,1.) ;
#328=VECTOR('Line Direction',#327,1.) ;
#333=VECTOR('Line Direction',#332,1.) ;
#15=UNCERTAINTY_MEASURE_WITH_UNIT(LENGTH_MEASURE(0.005),#12,'distance_accuracy_value','CONFUSED CURVE UNCERTAINTY') ;
#368=SHAPE_REPRESENTATION_RELATIONSHIP(' ',' ',#19,#367) ;
#66=ORIENTED_EDGE('',*,*,#45,.F.) ;
#67=ORIENTED_EDGE('',*,*,#52,.T.) ;
#68=ORIENTED_EDGE('',*,*,#59,.T.) ;
#69=ORIENTED_EDGE('',*,*,#64,.F.) ;
#91=ORIENTED_EDGE('',*,*,#84,.F.) ;
#92=ORIENTED_EDGE('',*,*,#64,.T.) ;
#93=ORIENTED_EDGE('',*,*,#89,.T.) ;
#94=ORIENTED_EDGE('',*,*,#52,.F.) ;
#132=ORIENTED_EDGE('',*,*,#111,.T.) ;
#133=ORIENTED_EDGE('',*,*,#118,.T.) ;
#134=ORIENTED_EDGE('',*,*,#125,.F.) ;
#135=ORIENTED_EDGE('',*,*,#130,.F.) ;
#150=ORIENTED_EDGE('',*,*,#125,.T.) ;
#151=ORIENTED_EDGE('',*,*,#143,.T.) ;
#152=ORIENTED_EDGE('',*,*,#111,.F.) ;
#153=ORIENTED_EDGE('',*,*,#148,.F.) ;
#163=ORIENTED_EDGE('',*,*,#84,.T.) ;
#164=ORIENTED_EDGE('',*,*,#45,.T.) ;
#167=ORIENTED_EDGE('',*,*,#118,.F.) ;
#168=ORIENTED_EDGE('',*,*,#143,.F.) ;
#197=ORIENTED_EDGE('',*,*,#59,.F.) ;
#198=ORIENTED_EDGE('',*,*,#183,.T.) ;
#199=ORIENTED_EDGE('',*,*,#190,.T.) ;
#200=ORIENTED_EDGE('',*,*,#195,.F.) ;
#210=ORIENTED_EDGE('',*,*,#89,.F.) ;
#211=ORIENTED_EDGE('',*,*,#195,.T.) ;
#212=ORIENTED_EDGE('',*,*,#208,.T.) ;
#213=ORIENTED_EDGE('',*,*,#183,.F.) ;
#242=ORIENTED_EDGE('',*,*,#190,.F.) ;
#243=ORIENTED_EDGE('',*,*,#228,.T.) ;
#244=ORIENTED_EDGE('',*,*,#235,.T.) ;
#245=ORIENTED_EDGE('',*,*,#240,.F.) ;
#255=ORIENTED_EDGE('',*,*,#208,.F.) ;
#256=ORIENTED_EDGE('',*,*,#240,.T.) ;
#257=ORIENTED_EDGE('',*,*,#253,.T.) ;
#258=ORIENTED_EDGE('',*,*,#228,.F.) ;
#296=ORIENTED_EDGE('',*,*,#275,.F.) ;
#297=ORIENTED_EDGE('',*,*,#282,.T.) ;
#298=ORIENTED_EDGE('',*,*,#289,.T.) ;
#299=ORIENTED_EDGE('',*,*,#294,.F.) ;
#314=ORIENTED_EDGE('',*,*,#307,.F.) ;
#315=ORIENTED_EDGE('',*,*,#294,.T.) ;
#316=ORIENTED_EDGE('',*,*,#312,.T.) ;
#317=ORIENTED_EDGE('',*,*,#282,.F.) ;
#337=ORIENTED_EDGE('',*,*,#289,.F.) ;
#338=ORIENTED_EDGE('',*,*,#330,.T.) ;
#339=ORIENTED_EDGE('',*,*,#130,.T.) ;
#340=ORIENTED_EDGE('',*,*,#335,.F.) ;
#345=ORIENTED_EDGE('',*,*,#312,.F.) ;
#346=ORIENTED_EDGE('',*,*,#335,.T.) ;
#347=ORIENTED_EDGE('',*,*,#148,.T.) ;
#348=ORIENTED_EDGE('',*,*,#330,.F.) ;
#358=ORIENTED_EDGE('',*,*,#235,.F.) ;
#359=ORIENTED_EDGE('',*,*,#253,.F.) ;
#362=ORIENTED_EDGE('',*,*,#307,.T.) ;
#363=ORIENTED_EDGE('',*,*,#275,.T.) ;
#169=FACE_BOUND('',#166,.T.) ;
#364=FACE_BOUND('',#361,.T.) ;
#31=CLOSED_SHELL('Closed Shell',(#71,#96,#137,#155,#170,#202,#215,#247,#260,#301,#319,#342,#350,#365)) ;
#367=ADVANCED_BREP_SHAPE_REPRESENTATION('NONE',(#21),#16) ;
#71=ADVANCED_FACE('S3D',(#70),#36,.T.) ;
#96=ADVANCED_FACE('S3D',(#95),#36,.T.) ;
#137=ADVANCED_FACE('S3D',(#136),#102,.F.) ;
#155=ADVANCED_FACE('S3D',(#154),#102,.F.) ;
#170=ADVANCED_FACE('S3D',(#165,#169),#161,.T.) ;
#202=ADVANCED_FACE('S3D',(#201),#176,.T.) ;
#215=ADVANCED_FACE('S3D',(#214),#176,.T.) ;
#247=ADVANCED_FACE('S3D',(#246),#221,.T.) ;
#260=ADVANCED_FACE('S3D',(#259),#221,.T.) ;
#301=ADVANCED_FACE('S3D',(#300),#266,.F.) ;
#319=ADVANCED_FACE('S3D',(#318),#266,.F.) ;
#342=ADVANCED_FACE('S3D',(#341),#325,.F.) ;
#350=ADVANCED_FACE('S3D',(#349),#325,.F.) ;
#365=ADVANCED_FACE('S3D',(#360,#364),#356,.F.) ;
#4=APPLICATION_PROTOCOL_DEFINITION('international standard','automotive_design',2001,#1) ;
#21=MANIFOLD_SOLID_BREP('S3D',#31) ;
#40=CIRCLE('generated circle',#39,1.25) ;
#56=CIRCLE('generated circle',#55,1.25) ;
#83=CIRCLE('generated circle',#82,1.25) ;
#88=CIRCLE('generated circle',#87,1.25) ;
#115=CIRCLE('generated circle',#114,1.1) ;
#129=CIRCLE('generated circle',#128,1.1) ;
#142=CIRCLE('generated circle',#141,1.1) ;
#147=CIRCLE('generated circle',#146,1.1) ;
#187=CIRCLE('generated circle',#186,1.85) ;
#207=CIRCLE('generated circle',#206,1.85) ;
#232=CIRCLE('generated circle',#231,1.85) ;
#252=CIRCLE('generated circle',#251,1.85) ;
#270=CIRCLE('generated circle',#269,1.7) ;
#286=CIRCLE('generated circle',#285,1.7) ;
#306=CIRCLE('generated circle',#305,1.7) ;
#311=CIRCLE('generated circle',#310,1.7) ;
#22=COLOUR_RGB('Colour',0.823529411765,0.823529411765,1.) ;
#72=COLOUR_RGB('Colour',0.756862745098,0.76862745098,0.752941176471) ;
#176=CONICAL_SURFACE('Cone',#175,1.25,0.479707519967) ;
#325=CONICAL_SURFACE('Cone',#324,1.1,0.479707519967) ;
#79=OVER_RIDING_STYLED_ITEM(' ',(#78),#71,#29) ;
#97=OVER_RIDING_STYLED_ITEM(' ',(#78),#96,#29) ;
#138=OVER_RIDING_STYLED_ITEM(' ',(#78),#137,#29) ;
#156=OVER_RIDING_STYLED_ITEM(' ',(#78),#155,#29) ;
#171=OVER_RIDING_STYLED_ITEM(' ',(#78),#170,#29) ;
#203=OVER_RIDING_STYLED_ITEM(' ',(#78),#202,#29) ;
#216=OVER_RIDING_STYLED_ITEM(' ',(#78),#215,#29) ;
#248=OVER_RIDING_STYLED_ITEM(' ',(#78),#247,#29) ;
#261=OVER_RIDING_STYLED_ITEM(' ',(#78),#260,#29) ;
#302=OVER_RIDING_STYLED_ITEM(' ',(#78),#301,#29) ;
#320=OVER_RIDING_STYLED_ITEM(' ',(#78),#319,#29) ;
#343=OVER_RIDING_STYLED_ITEM(' ',(#78),#342,#29) ;
#351=OVER_RIDING_STYLED_ITEM(' ',(#78),#350,#29) ;
#366=OVER_RIDING_STYLED_ITEM(' ',(#78),#365,#29) ;
#36=CYLINDRICAL_SURFACE('generated cylinder',#35,1.25) ;
#102=CYLINDRICAL_SURFACE('generated cylinder',#101,1.1) ;
#221=CYLINDRICAL_SURFACE('generated cylinder',#220,1.85) ;
#266=CYLINDRICAL_SURFACE('generated cylinder',#265,1.7) ;
#45=EDGE_CURVE('',#42,#44,#40,.T.) ;
#52=EDGE_CURVE('',#42,#51,#49,.F.) ;
#59=EDGE_CURVE('',#51,#58,#56,.T.) ;
#64=EDGE_CURVE('',#44,#58,#63,.F.) ;
#84=EDGE_CURVE('',#44,#42,#83,.T.) ;
#89=EDGE_CURVE('',#58,#51,#88,.T.) ;
#111=EDGE_CURVE('',#108,#110,#106,.T.) ;
#118=EDGE_CURVE('',#110,#117,#115,.T.) ;
#125=EDGE_CURVE('',#124,#117,#122,.T.) ;
#130=EDGE_CURVE('',#108,#124,#129,.T.) ;
#143=EDGE_CURVE('',#117,#110,#142,.T.) ;
#148=EDGE_CURVE('',#124,#108,#147,.T.) ;
#183=EDGE_CURVE('',#51,#182,#180,.T.) ;
#190=EDGE_CURVE('',#182,#189,#187,.F.) ;
#195=EDGE_CURVE('',#58,#189,#194,.T.) ;
#208=EDGE_CURVE('',#189,#182,#207,.F.) ;
#228=EDGE_CURVE('',#182,#227,#225,.F.) ;
#235=EDGE_CURVE('',#227,#234,#232,.T.) ;
#240=EDGE_CURVE('',#189,#234,#239,.F.) ;
#253=EDGE_CURVE('',#234,#227,#252,.T.) ;
#275=EDGE_CURVE('',#272,#274,#270,.T.) ;
#282=EDGE_CURVE('',#272,#281,#279,.T.) ;
#289=EDGE_CURVE('',#281,#288,#286,.T.) ;
#294=EDGE_CURVE('',#274,#288,#293,.T.) ;
#307=EDGE_CURVE('',#274,#272,#306,.T.) ;
#312=EDGE_CURVE('',#288,#281,#311,.T.) ;
#330=EDGE_CURVE('',#281,#108,#329,.F.) ;
#335=EDGE_CURVE('',#288,#124,#334,.F.) ;
#65=EDGE_LOOP('',(#66,#67,#68,#69)) ;
#90=EDGE_LOOP('',(#91,#92,#93,#94)) ;
#131=EDGE_LOOP('',(#132,#133,#134,#135)) ;
#149=EDGE_LOOP('',(#150,#151,#152,#153)) ;
#162=EDGE_LOOP('',(#163,#164)) ;
#166=EDGE_LOOP('',(#167,#168)) ;
#196=EDGE_LOOP('',(#197,#198,#199,#200)) ;
#209=EDGE_LOOP('',(#210,#211,#212,#213)) ;
#241=EDGE_LOOP('',(#242,#243,#244,#245)) ;
#254=EDGE_LOOP('',(#255,#256,#257,#258)) ;
#295=EDGE_LOOP('',(#296,#297,#298,#299)) ;
#313=EDGE_LOOP('',(#314,#315,#316,#317)) ;
#336=EDGE_LOOP('',(#337,#338,#339,#340)) ;
#344=EDGE_LOOP('',(#345,#346,#347,#348)) ;
#357=EDGE_LOOP('',(#358,#359)) ;
#361=EDGE_LOOP('',(#362,#363)) ;
#70=FACE_OUTER_BOUND('',#65,.T.) ;
#95=FACE_OUTER_BOUND('',#90,.T.) ;
#136=FACE_OUTER_BOUND('',#131,.T.) ;
#154=FACE_OUTER_BOUND('',#149,.T.) ;
#165=FACE_OUTER_BOUND('',#162,.T.) ;
#201=FACE_OUTER_BOUND('',#196,.T.) ;
#214=FACE_OUTER_BOUND('',#209,.T.) ;
#246=FACE_OUTER_BOUND('',#241,.T.) ;
#259=FACE_OUTER_BOUND('',#254,.T.) ;
#300=FACE_OUTER_BOUND('',#295,.T.) ;
#318=FACE_OUTER_BOUND('',#313,.T.) ;
#341=FACE_OUTER_BOUND('',#336,.T.) ;
#349=FACE_OUTER_BOUND('',#344,.T.) ;
#360=FACE_OUTER_BOUND('',#357,.T.) ;
#49=LINE('Line',#46,#48) ;
#63=LINE('Line',#60,#62) ;
#106=LINE('Line',#103,#105) ;
#122=LINE('Line',#119,#121) ;
#180=LINE('Line',#177,#179) ;
#194=LINE('Line',#191,#193) ;
#225=LINE('Line',#222,#224) ;
#239=LINE('Line',#236,#238) ;
#279=LINE('Line',#276,#278) ;
#293=LINE('Line',#290,#292) ;
#329=LINE('Line',#326,#328) ;
#334=LINE('Line',#331,#333) ;
#161=PLANE('',#160) ;
#356=PLANE('',#355) ;
#9=PRODUCT_CATEGORY_RELATIONSHIP(' ',' ',#7,#8) ;
#6=PRODUCT_DEFINITION_FORMATION_WITH_SPECIFIED_SOURCE('',' ',#5,.BOUGHT.) ;
#20=SHAPE_DEFINITION_REPRESENTATION(#11,#19) ;
#42=VERTEX_POINT('',#41) ;
#44=VERTEX_POINT('',#43) ;
#51=VERTEX_POINT('',#50) ;
#58=VERTEX_POINT('',#57) ;
#108=VERTEX_POINT('',#107) ;
#110=VERTEX_POINT('',#109) ;
#117=VERTEX_POINT('',#116) ;
#124=VERTEX_POINT('',#123) ;
#182=VERTEX_POINT('',#181) ;
#189=VERTEX_POINT('',#188) ;
#227=VERTEX_POINT('',#226) ;
#234=VERTEX_POINT('',#233) ;
#272=VERTEX_POINT('',#271) ;
#274=VERTEX_POINT('',#273) ;
#281=VERTEX_POINT('',#280) ;
#288=VERTEX_POINT('',#287) ;
#12=(LENGTH_UNIT()NAMED_UNIT(*)SI_UNIT(.MILLI.,.METRE.)) ;
#13=(NAMED_UNIT(*)PLANE_ANGLE_UNIT()SI_UNIT($,.RADIAN.)) ;
#14=(NAMED_UNIT(*)SI_UNIT($,.STERADIAN.)SOLID_ANGLE_UNIT()) ;
#16=(GEOMETRIC_REPRESENTATION_CONTEXT(3)GLOBAL_UNCERTAINTY_ASSIGNED_CONTEXT((#15))GLOBAL_UNIT_ASSIGNED_CONTEXT((#12,#13,#14))REPRESENTATION_CONTEXT(' ',' ')) ;
ENDSEC;
END-ISO-10303-21;
