ISO-10303-21;
HEADER;
FILE_DESCRIPTION(('CATIA V5 STEP Exchange','CAx-IF Rec.Pracs.--- Model Styling and Organization---1.5--- 2016-08-15','CAx-IF Rec.Pracs.---Supplemental Geometry---1.0---2011-11-01','CAx-IF Rec.Pracs.--- Composite Materials ---1.1---2010-07-15'),'2;1');

FILE_NAME ('706721-2_4_2652360000_2652360000.stp','2024-06-13T07:19:25+00:00',('none'),('Weidmueller'),'CATIA Version 5-6 Release 2022 SP4 HF5','CATIA V5 STEP AP214 v3','none');

FILE_SCHEMA(('AUTOMOTIVE_DESIGN { 1 0 10303 214 1 1 1 1 }'));

ENDSEC;
DATA;
#5=PRODUCT('CABTITE BP 8MM PA','CABTITE BP 8MM PA',' ',(#2)) ;
#2=PRODUCT_CONTEXT(' ',#1,'mechanical') ;
#1=APPLICATION_CONTEXT('automotive design') ;
#10=PRODUCT_DEFINITION(' ',' ',#6,#3) ;
#3=PRODUCT_DEFINITION_CONTEXT('part definition',#1,' ') ;
#11=PRODUCT_DEFINITION_SHAPE(' ',' ',#10) ;
#465=MECHANICAL_DESIGN_GEOMETRIC_PRESENTATION_REPRESENTATION(' ',(#87,#113,#184,#208,#225,#237,#244,#276,#289,#321,#334,#405,#437,#456,#462,#29),#16) ;
#19=SHAPE_REPRESENTATION(' ',(#18),#16) ;
#18=AXIS2_PLACEMENT_3D(' ',#17,$,$) ;
#35=AXIS2_PLACEMENT_3D('Cylinder Axis2P3D',#32,#33,#34) ;
#48=AXIS2_PLACEMENT_3D('Circle Axis2P3D',#46,#47,$) ;
#62=AXIS2_PLACEMENT_3D('Circle Axis2P3D',#60,#61,$) ;
#69=AXIS2_PLACEMENT_3D('Circle Axis2P3D',#67,#68,$) ;
#90=AXIS2_PLACEMENT_3D('Circle Axis2P3D',#88,#89,$) ;
#95=AXIS2_PLACEMENT_3D('Circle Axis2P3D',#93,#94,$) ;
#102=AXIS2_PLACEMENT_3D('Circle Axis2P3D',#100,#101,$) ;
#117=AXIS2_PLACEMENT_3D('Plane Axis2P3D',#114,#115,#116) ;
#188=AXIS2_PLACEMENT_3D('Sphere Axis2P3D',#185,#186,#187) ;
#192=AXIS2_PLACEMENT_3D('Circle Axis2P3D',#190,#191,$) ;
#199=AXIS2_PLACEMENT_3D('Circle Axis2P3D',#197,#198,$) ;
#212=AXIS2_PLACEMENT_3D('Sphere Axis2P3D',#209,#210,#211) ;
#216=AXIS2_PLACEMENT_3D('Circle Axis2P3D',#214,#215,$) ;
#228=AXIS2_PLACEMENT_3D('Circle Axis2P3D',#226,#227,$) ;
#248=AXIS2_PLACEMENT_3D('Cylinder Axis2P3D',#245,#246,#247) ;
#259=AXIS2_PLACEMENT_3D('Circle Axis2P3D',#257,#258,$) ;
#279=AXIS2_PLACEMENT_3D('Circle Axis2P3D',#277,#278,$) ;
#293=AXIS2_PLACEMENT_3D('Cone Axis2P3D',#290,#291,#292) ;
#311=AXIS2_PLACEMENT_3D('Circle Axis2P3D',#309,#310,$) ;
#324=AXIS2_PLACEMENT_3D('Circle Axis2P3D',#322,#323,$) ;
#338=AXIS2_PLACEMENT_3D('Plane Axis2P3D',#335,#336,#337) ;
#409=AXIS2_PLACEMENT_3D('Cylinder Axis2P3D',#406,#407,#408) ;
#413=AXIS2_PLACEMENT_3D('Circle Axis2P3D',#411,#412,$) ;
#17=CARTESIAN_POINT(' ',(0.,0.,0.)) ;
#32=CARTESIAN_POINT('Axis2P3D Location',(4.9,4.9,16.5)) ;
#37=CARTESIAN_POINT('Line Origine',(-1.7763568394E-15,4.9,16.5)) ;
#41=CARTESIAN_POINT('Vertex',(-1.7763568394E-15,4.9,16.5)) ;
#43=CARTESIAN_POINT('Vertex',(-1.7763568394E-15,4.9,17.)) ;
#46=CARTESIAN_POINT('Axis2P3D Location',(4.9,4.9,16.5)) ;
#50=CARTESIAN_POINT('Vertex',(9.8,4.9,16.5)) ;
#53=CARTESIAN_POINT('Line Origine',(9.8,4.9,16.5)) ;
#57=CARTESIAN_POINT('Vertex',(9.8,4.9,17.)) ;
#60=CARTESIAN_POINT('Axis2P3D Location',(4.9,4.9,17.)) ;
#64=CARTESIAN_POINT('Vertex',(4.9,0.,17.)) ;
#67=CARTESIAN_POINT('Axis2P3D Location',(4.9,4.9,17.)) ;
#88=CARTESIAN_POINT('Axis2P3D Location',(4.9,4.9,16.5)) ;
#93=CARTESIAN_POINT('Axis2P3D Location',(4.9,4.9,17.)) ;
#97=CARTESIAN_POINT('Vertex',(4.90000000002,9.8,17.)) ;
#100=CARTESIAN_POINT('Axis2P3D Location',(4.9,4.9,17.)) ;
#114=CARTESIAN_POINT('Axis2P3D Location',(4.9,8.881784197E-16,16.5)) ;
#124=CARTESIAN_POINT('Control Point',(8.9,4.90000000037,16.5)) ;
#125=CARTESIAN_POINT('Control Point',(8.9,4.50810866712,16.5)) ;
#126=CARTESIAN_POINT('Control Point',(8.8520066175,4.11621807473,16.5)) ;
#127=CARTESIAN_POINT('Control Point',(8.75597992868,3.73205671199,16.5)) ;
#128=CARTESIAN_POINT('Control Point',(8.47188247898,2.99529373169,16.5)) ;
#129=CARTESIAN_POINT('Control Point',(8.01839213997,2.34886282832,16.5)) ;
#130=CARTESIAN_POINT('Control Point',(7.75290000842,2.05506866801,16.5)) ;
#131=CARTESIAN_POINT('Control Point',(7.15554740549,1.53863772956,16.5)) ;
#132=CARTESIAN_POINT('Control Point',(6.45122933065,1.18161890383,16.5)) ;
#133=CARTESIAN_POINT('Control Point',(6.07872422167,1.04730199065,16.5)) ;
#134=CARTESIAN_POINT('Control Point',(5.3086334377,0.872684626038,16.5)) ;
#135=CARTESIAN_POINT('Control Point',(4.51916639325,0.889060437115,16.5)) ;
#136=CARTESIAN_POINT('Control Point',(4.12727375026,0.945816533314,16.5)) ;
#137=CARTESIAN_POINT('Control Point',(3.36559545212,1.15408848303,16.5)) ;
#138=CARTESIAN_POINT('Control Point',(2.67668803612,1.54000679699,16.5)) ;
#139=CARTESIAN_POINT('Control Point',(2.35759390044,1.77448500753,16.5)) ;
#140=CARTESIAN_POINT('Control Point',(1.78349985405,2.31665386469,16.5)) ;
#141=CARTESIAN_POINT('Control Point',(1.35720573047,2.98133401193,16.5)) ;
#142=CARTESIAN_POINT('Control Point',(1.18597153996,3.33837733918,16.5)) ;
#143=CARTESIAN_POINT('Control Point',(1.00840864131,3.86692665416,16.5)) ;
#144=CARTESIAN_POINT('Control Point',(0.924613353606,4.41470077857,16.5)) ;
#145=CARTESIAN_POINT('Control Point',(0.908155837842,4.57689881587,16.5)) ;
#146=CARTESIAN_POINT('Control Point',(0.9,4.7384494082,16.5)) ;
#147=CARTESIAN_POINT('Control Point',(0.9,4.90000000037,16.5)) ;
#148=CARTESIAN_POINT('Vertex',(8.9,4.9,16.5)) ;
#150=CARTESIAN_POINT('Vertex',(0.9,4.90000000037,16.5)) ;
#154=CARTESIAN_POINT('Control Point',(0.9,4.90000000037,16.5)) ;
#155=CARTESIAN_POINT('Control Point',(0.9,5.29189133026,16.5)) ;
#156=CARTESIAN_POINT('Control Point',(0.947993381674,5.68378191926,16.5)) ;
#157=CARTESIAN_POINT('Control Point',(1.04402007208,6.06794329315,16.5)) ;
#158=CARTESIAN_POINT('Control Point',(1.32811752027,6.80470626777,16.5)) ;
#159=CARTESIAN_POINT('Control Point',(1.78160785527,7.45113716681,16.5)) ;
#160=CARTESIAN_POINT('Control Point',(2.04709999356,7.7449313336,16.5)) ;
#161=CARTESIAN_POINT('Control Point',(2.64445259588,8.26136227136,16.5)) ;
#162=CARTESIAN_POINT('Control Point',(3.34877066997,8.61838109683,16.5)) ;
#163=CARTESIAN_POINT('Control Point',(3.72127577356,8.75269800727,16.5)) ;
#164=CARTESIAN_POINT('Control Point',(4.49136656391,8.92731537403,16.5)) ;
#165=CARTESIAN_POINT('Control Point',(5.28083361517,8.91093956182,16.5)) ;
#166=CARTESIAN_POINT('Control Point',(5.67272623974,8.85418346814,16.5)) ;
#167=CARTESIAN_POINT('Control Point',(6.43440455022,8.64591151651,16.5)) ;
#168=CARTESIAN_POINT('Control Point',(7.12331197629,8.25999319511,16.5)) ;
#169=CARTESIAN_POINT('Control Point',(7.44240609142,8.02551499763,16.5)) ;
#170=CARTESIAN_POINT('Control Point',(8.01650014705,7.48334613352,16.5)) ;
#171=CARTESIAN_POINT('Control Point',(8.44279427565,6.81866597592,16.5)) ;
#172=CARTESIAN_POINT('Control Point',(8.61402846021,6.46162266047,16.5)) ;
#173=CARTESIAN_POINT('Control Point',(8.79159135968,5.93307334301,16.5)) ;
#174=CARTESIAN_POINT('Control Point',(8.87538664736,5.38529921603,16.5)) ;
#175=CARTESIAN_POINT('Control Point',(8.89184416232,5.2231011816,16.5)) ;
#176=CARTESIAN_POINT('Control Point',(8.9,5.06155059091,16.5)) ;
#177=CARTESIAN_POINT('Control Point',(8.9,4.90000000037,16.5)) ;
#185=CARTESIAN_POINT('Axis2P3D Location',(4.9,4.9,-6.76)) ;
#190=CARTESIAN_POINT('Axis2P3D Location',(4.9,4.9,-6.76)) ;
#194=CARTESIAN_POINT('Vertex',(4.9,4.9,17.5)) ;
#197=CARTESIAN_POINT('Axis2P3D Location',(4.9,4.9,-6.76)) ;
#209=CARTESIAN_POINT('Axis2P3D Location',(4.9,4.9,-6.76)) ;
#214=CARTESIAN_POINT('Axis2P3D Location',(4.9,4.9,-6.76)) ;
#226=CARTESIAN_POINT('Axis2P3D Location',(4.9,4.9,-6.76)) ;
#245=CARTESIAN_POINT('Axis2P3D Location',(4.9,4.9,16.5)) ;
#250=CARTESIAN_POINT('Line Origine',(0.9,4.9,16.5)) ;
#254=CARTESIAN_POINT('Vertex',(0.9,4.9,2.)) ;
#257=CARTESIAN_POINT('Axis2P3D Location',(4.9,4.9,2.)) ;
#261=CARTESIAN_POINT('Vertex',(8.9,4.9,2.)) ;
#264=CARTESIAN_POINT('Line Origine',(8.9,4.9,16.5)) ;
#277=CARTESIAN_POINT('Axis2P3D Location',(4.9,4.9,2.)) ;
#290=CARTESIAN_POINT('Axis2P3D Location',(4.9,4.9,0.)) ;
#295=CARTESIAN_POINT('Line Origine',(980587.374583,4.89999999976,4902894.37868)) ;
#299=CARTESIAN_POINT('Vertex',(8.5,4.9,0.)) ;
#302=CARTESIAN_POINT('Line Origine',(-980577.574583,4.90000000012,4902894.37868)) ;
#306=CARTESIAN_POINT('Vertex',(1.30000000004,4.9,-1.79101651271E-10)) ;
#309=CARTESIAN_POINT('Axis2P3D Location',(4.9,4.9,0.)) ;
#322=CARTESIAN_POINT('Axis2P3D Location',(4.9,4.9,0.)) ;
#335=CARTESIAN_POINT('Axis2P3D Location',(4.9,0.9,0.)) ;
#345=CARTESIAN_POINT('Control Point',(2.4,4.9,0.)) ;
#346=CARTESIAN_POINT('Control Point',(2.4,5.13236899705,0.)) ;
#347=CARTESIAN_POINT('Control Point',(2.42699767705,5.36473732722,0.)) ;
#348=CARTESIAN_POINT('Control Point',(2.48101119243,5.59297594385,0.)) ;
#349=CARTESIAN_POINT('Control Point',(2.64104305169,6.03262119217,0.)) ;
#350=CARTESIAN_POINT('Control Point',(2.89760977258,6.42386175577,0.)) ;
#351=CARTESIAN_POINT('Control Point',(3.04819241362,6.60368165238,0.)) ;
#352=CARTESIAN_POINT('Control Point',(3.38830210263,6.92496585818,0.)) ;
#353=CARTESIAN_POINT('Control Point',(3.79301176543,7.15971199958,0.)) ;
#354=CARTESIAN_POINT('Control Point',(4.00821871152,7.25296592472,0.)) ;
#355=CARTESIAN_POINT('Control Point',(4.45625487929,7.38773140167,0.)) ;
#356=CARTESIAN_POINT('Control Point',(4.92325180244,7.41618374218,0.)) ;
#357=CARTESIAN_POINT('Control Point',(5.15742875674,7.4030886814,0.)) ;
#358=CARTESIAN_POINT('Control Point',(5.61834437764,7.32274608998,0.)) ;
#359=CARTESIAN_POINT('Control Point',(6.04855917388,7.13886870892,0.)) ;
#360=CARTESIAN_POINT('Control Point',(6.25202749935,7.02220266509,0.)) ;
#361=CARTESIAN_POINT('Control Point',(6.62804328394,6.74379599502,0.)) ;
#362=CARTESIAN_POINT('Control Point',(6.93020957907,6.38659689811,0.)) ;
#363=CARTESIAN_POINT('Control Point',(7.05980521584,6.19110957689,0.)) ;
#364=CARTESIAN_POINT('Control Point',(7.24575192754,5.82386657772,0.)) ;
#365=CARTESIAN_POINT('Control Point',(7.35326036046,5.42772354571,0.)) ;
#366=CARTESIAN_POINT('Control Point',(7.3844212916,5.2530289934,0.)) ;
#367=CARTESIAN_POINT('Control Point',(7.4,5.07651463377,0.)) ;
#368=CARTESIAN_POINT('Control Point',(7.4,4.9,0.)) ;
#369=CARTESIAN_POINT('Vertex',(2.4,4.9,0.)) ;
#371=CARTESIAN_POINT('Vertex',(7.4,4.9,0.)) ;
#375=CARTESIAN_POINT('Control Point',(7.4,4.9,0.)) ;
#376=CARTESIAN_POINT('Control Point',(7.4,4.66763100293,0.)) ;
#377=CARTESIAN_POINT('Control Point',(7.37300232295,4.43526267276,0.)) ;
#378=CARTESIAN_POINT('Control Point',(7.31898880757,4.20702405618,0.)) ;
#379=CARTESIAN_POINT('Control Point',(7.15895694833,3.76737880785,0.)) ;
#380=CARTESIAN_POINT('Control Point',(6.90239022743,3.37613824426,0.)) ;
#381=CARTESIAN_POINT('Control Point',(6.75180758636,3.19631834759,0.)) ;
#382=CARTESIAN_POINT('Control Point',(6.41169789736,2.87503414185,0.)) ;
#383=CARTESIAN_POINT('Control Point',(6.00698823464,2.64028800044,0.)) ;
#384=CARTESIAN_POINT('Control Point',(5.79178128842,2.54703407526,0.)) ;
#385=CARTESIAN_POINT('Control Point',(5.34374512067,2.41226859833,0.)) ;
#386=CARTESIAN_POINT('Control Point',(4.87674819756,2.38381625782,0.)) ;
#387=CARTESIAN_POINT('Control Point',(4.64257124325,2.3969113186,0.)) ;
#388=CARTESIAN_POINT('Control Point',(4.18165562234,2.47725391002,0.)) ;
#389=CARTESIAN_POINT('Control Point',(3.75144082609,2.6611312911,0.)) ;
#390=CARTESIAN_POINT('Control Point',(3.54797250068,2.77779733489,0.)) ;
#391=CARTESIAN_POINT('Control Point',(3.17195671606,3.05620400497,0.)) ;
#392=CARTESIAN_POINT('Control Point',(2.86979042091,3.41340310193,0.)) ;
#393=CARTESIAN_POINT('Control Point',(2.74019478416,3.60889042308,0.)) ;
#394=CARTESIAN_POINT('Control Point',(2.55424807249,3.97613342224,0.)) ;
#395=CARTESIAN_POINT('Control Point',(2.44673963955,4.37227645424,0.)) ;
#396=CARTESIAN_POINT('Control Point',(2.4155787084,4.54697100664,0.)) ;
#397=CARTESIAN_POINT('Control Point',(2.4,4.72348536625,0.)) ;
#398=CARTESIAN_POINT('Control Point',(2.4,4.9,0.)) ;
#406=CARTESIAN_POINT('Axis2P3D Location',(4.9,4.9,163.35)) ;
#411=CARTESIAN_POINT('Axis2P3D Location',(4.9,4.9,16.5000000004)) ;
#415=CARTESIAN_POINT('Vertex',(7.4,4.90000000037,16.5000000004)) ;
#417=CARTESIAN_POINT('Vertex',(2.4,4.9,16.5000000004)) ;
#420=CARTESIAN_POINT('Line Origine',(2.4,4.9,163.35)) ;
#425=CARTESIAN_POINT('Line Origine',(7.4,4.9,163.35)) ;
#439=CARTESIAN_POINT('Control Point',(7.4,4.9,16.5000000004)) ;
#440=CARTESIAN_POINT('Control Point',(7.4,4.1146018366,16.5000000004)) ;
#441=CARTESIAN_POINT('Control Point',(7.09157486247,3.32920367321,16.5000000005)) ;
#442=CARTESIAN_POINT('Control Point',(6.47079632679,2.70842513753,16.5000000005)) ;
#443=CARTESIAN_POINT('Control Point',(4.9,2.09157486247,16.5000000006)) ;
#444=CARTESIAN_POINT('Control Point',(3.32920367321,2.70842513753,16.5000000007)) ;
#445=CARTESIAN_POINT('Control Point',(2.70842513753,3.32920367321,16.5000000007)) ;
#446=CARTESIAN_POINT('Control Point',(2.4,4.1146018366,16.5000000008)) ;
#447=CARTESIAN_POINT('Control Point',(2.4,4.9,16.5000000008)) ;
#33=DIRECTION('Axis2P3D Direction',(0.,0.,-1.)) ;
#34=DIRECTION('Axis2P3D XDirection',(-1.,-2.64687485605E-28,-0.)) ;
#38=DIRECTION('Vector Direction',(0.,0.,-1.)) ;
#47=DIRECTION('Axis2P3D Direction',(0.,0.,-1.)) ;
#54=DIRECTION('Vector Direction',(0.,0.,-1.)) ;
#61=DIRECTION('Axis2P3D Direction',(0.,0.,-1.)) ;
#68=DIRECTION('Axis2P3D Direction',(0.,0.,-1.)) ;
#89=DIRECTION('Axis2P3D Direction',(0.,0.,-1.)) ;
#94=DIRECTION('Axis2P3D Direction',(0.,0.,-1.)) ;
#101=DIRECTION('Axis2P3D Direction',(0.,0.,-1.)) ;
#115=DIRECTION('Axis2P3D Direction',(0.,0.,1.)) ;
#116=DIRECTION('Axis2P3D XDirection',(1.,0.,0.)) ;
#186=DIRECTION('Axis2P3D Direction',(0.,0.,-1.)) ;
#187=DIRECTION('Axis2P3D XDirection',(1.,4.75940620614E-16,0.)) ;
#191=DIRECTION('Axis2P3D Direction',(-4.75940620614E-16,1.,0.)) ;
#198=DIRECTION('Axis2P3D Direction',(1.,7.59217565496E-16,0.)) ;
#210=DIRECTION('Axis2P3D Direction',(-0.,0.,-1.)) ;
#211=DIRECTION('Axis2P3D XDirection',(-1.,-3.66108169703E-16,0.)) ;
#215=DIRECTION('Axis2P3D Direction',(9.51881241228E-16,-1.,0.)) ;
#227=DIRECTION('Axis2P3D Direction',(-1.,-6.49385114585E-16,-0.)) ;
#246=DIRECTION('Axis2P3D Direction',(0.,0.,-1.)) ;
#247=DIRECTION('Axis2P3D XDirection',(-1.,-2.64687485605E-28,-0.)) ;
#251=DIRECTION('Vector Direction',(0.,0.,-1.)) ;
#258=DIRECTION('Axis2P3D Direction',(0.,0.,-1.)) ;
#265=DIRECTION('Vector Direction',(0.,0.,-1.)) ;
#278=DIRECTION('Axis2P3D Direction',(0.,0.,-1.)) ;
#291=DIRECTION('Axis2P3D Direction',(0.,0.,1.)) ;
#292=DIRECTION('Axis2P3D XDirection',(1.,0.,0.)) ;
#296=DIRECTION('Vector Direction',(0.196116134917,-4.80345547554E-17,0.980580675735)) ;
#303=DIRECTION('Vector Direction',(-0.196116134917,2.40172773777E-17,0.980580675735)) ;
#310=DIRECTION('Axis2P3D Direction',(0.,0.,1.)) ;
#323=DIRECTION('Axis2P3D Direction',(0.,0.,1.)) ;
#336=DIRECTION('Axis2P3D Direction',(0.,0.,1.)) ;
#337=DIRECTION('Axis2P3D XDirection',(1.,0.,0.)) ;
#407=DIRECTION('Axis2P3D Direction',(0.,0.,-1.)) ;
#408=DIRECTION('Axis2P3D XDirection',(-1.,0.,0.)) ;
#412=DIRECTION('Axis2P3D Direction',(0.,0.,-1.)) ;
#421=DIRECTION('Vector Direction',(0.,0.,-1.)) ;
#426=DIRECTION('Vector Direction',(0.,0.,-1.)) ;
#30=PRESENTATION_LAYER_ASSIGNMENT('1',' ',(#21)) ;
#8=PRODUCT_RELATED_PRODUCT_CATEGORY('part',$,(#5)) ;
#7=PRODUCT_CATEGORY('part','specification') ;
#29=STYLED_ITEM(' ',(#28),#21) ;
#28=PRESENTATION_STYLE_ASSIGNMENT((#27)) ;
#86=PRESENTATION_STYLE_ASSIGNMENT((#85)) ;
#27=SURFACE_STYLE_USAGE(.BOTH.,#26) ;
#85=SURFACE_STYLE_USAGE(.BOTH.,#84) ;
#26=SURFACE_SIDE_STYLE(' ',(#25)) ;
#84=SURFACE_SIDE_STYLE(' ',(#83)) ;
#25=SURFACE_STYLE_FILL_AREA(#24) ;
#83=SURFACE_STYLE_FILL_AREA(#82) ;
#24=FILL_AREA_STYLE(' ',(#23)) ;
#82=FILL_AREA_STYLE(' ',(#81)) ;
#23=FILL_AREA_STYLE_COLOUR(' ',#22) ;
#81=FILL_AREA_STYLE_COLOUR(' ',#80) ;
#39=VECTOR('Line Direction',#38,1.) ;
#55=VECTOR('Line Direction',#54,1.) ;
#252=VECTOR('Line Direction',#251,1.) ;
#266=VECTOR('Line Direction',#265,1.) ;
#297=VECTOR('Line Direction',#296,1.) ;
#304=VECTOR('Line Direction',#303,1.) ;
#422=VECTOR('Line Direction',#421,1.) ;
#427=VECTOR('Line Direction',#426,1.) ;
#15=UNCERTAINTY_MEASURE_WITH_UNIT(LENGTH_MEASURE(0.005),#12,'distance_accuracy_value','CONFUSED CURVE UNCERTAINTY') ;
#464=SHAPE_REPRESENTATION_RELATIONSHIP(' ',' ',#19,#463) ;
#73=ORIENTED_EDGE('',*,*,#45,.F.) ;
#74=ORIENTED_EDGE('',*,*,#52,.F.) ;
#75=ORIENTED_EDGE('',*,*,#59,.F.) ;
#76=ORIENTED_EDGE('',*,*,#66,.T.) ;
#77=ORIENTED_EDGE('',*,*,#71,.T.) ;
#106=ORIENTED_EDGE('',*,*,#59,.T.) ;
#107=ORIENTED_EDGE('',*,*,#92,.F.) ;
#108=ORIENTED_EDGE('',*,*,#45,.T.) ;
#109=ORIENTED_EDGE('',*,*,#99,.T.) ;
#110=ORIENTED_EDGE('',*,*,#104,.T.) ;
#120=ORIENTED_EDGE('',*,*,#92,.T.) ;
#121=ORIENTED_EDGE('',*,*,#52,.T.) ;
#180=ORIENTED_EDGE('',*,*,#152,.F.) ;
#181=ORIENTED_EDGE('',*,*,#178,.F.) ;
#203=ORIENTED_EDGE('',*,*,#196,.F.) ;
#204=ORIENTED_EDGE('',*,*,#201,.T.) ;
#205=ORIENTED_EDGE('',*,*,#66,.F.) ;
#220=ORIENTED_EDGE('',*,*,#218,.T.) ;
#221=ORIENTED_EDGE('',*,*,#71,.F.) ;
#222=ORIENTED_EDGE('',*,*,#201,.F.) ;
#232=ORIENTED_EDGE('',*,*,#218,.F.) ;
#233=ORIENTED_EDGE('',*,*,#230,.T.) ;
#234=ORIENTED_EDGE('',*,*,#99,.F.) ;
#239=ORIENTED_EDGE('',*,*,#196,.T.) ;
#240=ORIENTED_EDGE('',*,*,#104,.F.) ;
#241=ORIENTED_EDGE('',*,*,#230,.F.) ;
#270=ORIENTED_EDGE('',*,*,#256,.F.) ;
#271=ORIENTED_EDGE('',*,*,#263,.T.) ;
#272=ORIENTED_EDGE('',*,*,#268,.F.) ;
#273=ORIENTED_EDGE('',*,*,#152,.T.) ;
#283=ORIENTED_EDGE('',*,*,#268,.T.) ;
#284=ORIENTED_EDGE('',*,*,#281,.T.) ;
#285=ORIENTED_EDGE('',*,*,#256,.T.) ;
#286=ORIENTED_EDGE('',*,*,#178,.T.) ;
#315=ORIENTED_EDGE('',*,*,#301,.F.) ;
#316=ORIENTED_EDGE('',*,*,#263,.F.) ;
#317=ORIENTED_EDGE('',*,*,#308,.F.) ;
#318=ORIENTED_EDGE('',*,*,#313,.F.) ;
#328=ORIENTED_EDGE('',*,*,#308,.T.) ;
#329=ORIENTED_EDGE('',*,*,#281,.F.) ;
#330=ORIENTED_EDGE('',*,*,#301,.T.) ;
#331=ORIENTED_EDGE('',*,*,#326,.F.) ;
#341=ORIENTED_EDGE('',*,*,#313,.T.) ;
#342=ORIENTED_EDGE('',*,*,#326,.T.) ;
#401=ORIENTED_EDGE('',*,*,#373,.F.) ;
#402=ORIENTED_EDGE('',*,*,#399,.F.) ;
#431=ORIENTED_EDGE('',*,*,#419,.T.) ;
#432=ORIENTED_EDGE('',*,*,#424,.F.) ;
#433=ORIENTED_EDGE('',*,*,#373,.T.) ;
#434=ORIENTED_EDGE('',*,*,#429,.F.) ;
#450=ORIENTED_EDGE('',*,*,#448,.T.) ;
#451=ORIENTED_EDGE('',*,*,#429,.T.) ;
#452=ORIENTED_EDGE('',*,*,#399,.T.) ;
#453=ORIENTED_EDGE('',*,*,#424,.T.) ;
#458=ORIENTED_EDGE('',*,*,#448,.F.) ;
#459=ORIENTED_EDGE('',*,*,#419,.F.) ;
#182=FACE_BOUND('',#179,.T.) ;
#403=FACE_BOUND('',#400,.T.) ;
#31=CLOSED_SHELL('Closed Shell',(#79,#112,#183,#207,#224,#236,#243,#275,#288,#320,#333,#404,#436,#455,#461)) ;
#463=ADVANCED_BREP_SHAPE_REPRESENTATION('NONE',(#21),#16) ;
#79=ADVANCED_FACE('CABTITE BP 8MM PA',(#78),#36,.T.) ;
#112=ADVANCED_FACE('CABTITE BP 8MM PA',(#111),#36,.T.) ;
#183=ADVANCED_FACE('CABTITE BP 8MM PA',(#122,#182),#118,.F.) ;
#207=ADVANCED_FACE('CABTITE BP 8MM PA',(#206),#189,.T.) ;
#224=ADVANCED_FACE('CABTITE BP 8MM PA',(#223),#213,.T.) ;
#236=ADVANCED_FACE('CABTITE BP 8MM PA',(#235),#213,.T.) ;
#243=ADVANCED_FACE('CABTITE BP 8MM PA',(#242),#213,.T.) ;
#275=ADVANCED_FACE('CABTITE BP 8MM PA',(#274),#249,.T.) ;
#288=ADVANCED_FACE('CABTITE BP 8MM PA',(#287),#249,.T.) ;
#320=ADVANCED_FACE('CABTITE BP 8MM PA',(#319),#294,.T.) ;
#333=ADVANCED_FACE('CABTITE BP 8MM PA',(#332),#294,.T.) ;
#404=ADVANCED_FACE('CABTITE BP 8MM PA',(#343,#403),#339,.F.) ;
#436=ADVANCED_FACE('CABTITE BP 8MM PA',(#435),#410,.F.) ;
#455=ADVANCED_FACE('CABTITE BP 8MM PA',(#454),#410,.F.) ;
#461=ADVANCED_FACE('CABTITE BP 8MM PA',(#460),#118,.F.) ;
#4=APPLICATION_PROTOCOL_DEFINITION('international standard','automotive_design',2001,#1) ;
#123=B_SPLINE_CURVE_WITH_KNOTS('',5,(#124,#125,#126,#127,#128,#129,#130,#131,#132,#133,#134,#135,#136,#137,#138,#139,#140,#141,#142,#143,#144,#145,#146,#147),.UNSPECIFIED.,.F.,.U.,(6,3,3,3,3,3,3,6),(0.,2.77783831804,5.55567662753,8.33351492062,11.111353191,13.8891914546,16.6670297548,17.8121467481),.UNSPECIFIED.) ;
#153=B_SPLINE_CURVE_WITH_KNOTS('',5,(#154,#155,#156,#157,#158,#159,#160,#161,#162,#163,#164,#165,#166,#167,#168,#169,#170,#171,#172,#173,#174,#175,#176,#177),.UNSPECIFIED.,.F.,.U.,(6,3,3,3,3,3,3,6),(0.,2.77783829166,5.55567658212,8.33351488347,11.1113531876,13.8891914986,16.667029826,17.8121468068),.UNSPECIFIED.) ;
#344=B_SPLINE_CURVE_WITH_KNOTS('',5,(#345,#346,#347,#348,#349,#350,#351,#352,#353,#354,#355,#356,#357,#358,#359,#360,#361,#362,#363,#364,#365,#366,#367,#368),.UNSPECIFIED.,.F.,.U.,(6,3,3,3,3,3,3,6),(0.,1.64665445758,3.293308909,4.93996337496,6.58661782561,8.23327229306,9.87992676294,11.1307761112),.UNSPECIFIED.) ;
#374=B_SPLINE_CURVE_WITH_KNOTS('',5,(#375,#376,#377,#378,#379,#380,#381,#382,#383,#384,#385,#386,#387,#388,#389,#390,#391,#392,#393,#394,#395,#396,#397,#398),.UNSPECIFIED.,.F.,.U.,(6,3,3,3,3,3,3,6),(0.,1.64665445764,3.29330890893,4.93996337465,6.58661782526,8.23327229282,9.8799267628,11.1307761109),.UNSPECIFIED.) ;
#438=B_SPLINE_CURVE_WITH_KNOTS('',5,(#439,#440,#441,#442,#443,#444,#445,#446,#447),.UNSPECIFIED.,.F.,.U.,(6,3,6),(-3.92699081699,2.22044604925E-16,3.92699081699),.UNSPECIFIED.) ;
#21=MANIFOLD_SOLID_BREP('CABTITE BP 8MM PA',#31) ;
#49=CIRCLE('generated circle',#48,4.9) ;
#63=CIRCLE('generated circle',#62,4.9) ;
#70=CIRCLE('generated circle',#69,4.9) ;
#91=CIRCLE('generated circle',#90,4.9) ;
#96=CIRCLE('generated circle',#95,4.9) ;
#103=CIRCLE('generated circle',#102,4.9) ;
#193=CIRCLE('generated circle',#192,24.26) ;
#200=CIRCLE('generated circle',#199,24.26) ;
#217=CIRCLE('generated circle',#216,24.26) ;
#229=CIRCLE('generated circle',#228,24.26) ;
#260=CIRCLE('generated circle',#259,4.) ;
#280=CIRCLE('generated circle',#279,4.) ;
#312=CIRCLE('generated circle',#311,3.6) ;
#325=CIRCLE('generated circle',#324,3.6) ;
#414=CIRCLE('generated circle',#413,2.5) ;
#22=COLOUR_RGB('Colour',0.823529411765,0.823529411765,1.) ;
#80=COLOUR_RGB('Colour',0.964705882353,0.937254901961,0.894117647059) ;
#294=CONICAL_SURFACE('Cone',#293,3.6,0.197395559624) ;
#87=OVER_RIDING_STYLED_ITEM(' ',(#86),#79,#29) ;
#113=OVER_RIDING_STYLED_ITEM(' ',(#86),#112,#29) ;
#184=OVER_RIDING_STYLED_ITEM(' ',(#86),#183,#29) ;
#208=OVER_RIDING_STYLED_ITEM(' ',(#86),#207,#29) ;
#225=OVER_RIDING_STYLED_ITEM(' ',(#86),#224,#29) ;
#237=OVER_RIDING_STYLED_ITEM(' ',(#86),#236,#29) ;
#244=OVER_RIDING_STYLED_ITEM(' ',(#86),#243,#29) ;
#276=OVER_RIDING_STYLED_ITEM(' ',(#86),#275,#29) ;
#289=OVER_RIDING_STYLED_ITEM(' ',(#86),#288,#29) ;
#321=OVER_RIDING_STYLED_ITEM(' ',(#86),#320,#29) ;
#334=OVER_RIDING_STYLED_ITEM(' ',(#86),#333,#29) ;
#405=OVER_RIDING_STYLED_ITEM(' ',(#86),#404,#29) ;
#437=OVER_RIDING_STYLED_ITEM(' ',(#86),#436,#29) ;
#456=OVER_RIDING_STYLED_ITEM(' ',(#86),#455,#29) ;
#462=OVER_RIDING_STYLED_ITEM(' ',(#86),#461,#29) ;
#36=CYLINDRICAL_SURFACE('generated cylinder',#35,4.9) ;
#249=CYLINDRICAL_SURFACE('generated cylinder',#248,4.) ;
#410=CYLINDRICAL_SURFACE('generated cylinder',#409,2.5) ;
#45=EDGE_CURVE('',#42,#44,#40,.F.) ;
#52=EDGE_CURVE('',#51,#42,#49,.T.) ;
#59=EDGE_CURVE('',#58,#51,#56,.T.) ;
#66=EDGE_CURVE('',#58,#65,#63,.T.) ;
#71=EDGE_CURVE('',#65,#44,#70,.T.) ;
#92=EDGE_CURVE('',#42,#51,#91,.T.) ;
#99=EDGE_CURVE('',#44,#98,#96,.T.) ;
#104=EDGE_CURVE('',#98,#58,#103,.T.) ;
#152=EDGE_CURVE('',#149,#151,#123,.T.) ;
#178=EDGE_CURVE('',#151,#149,#153,.T.) ;
#196=EDGE_CURVE('',#195,#58,#193,.T.) ;
#201=EDGE_CURVE('',#195,#65,#200,.T.) ;
#218=EDGE_CURVE('',#195,#44,#217,.T.) ;
#230=EDGE_CURVE('',#195,#98,#229,.T.) ;
#256=EDGE_CURVE('',#255,#151,#253,.F.) ;
#263=EDGE_CURVE('',#255,#262,#260,.F.) ;
#268=EDGE_CURVE('',#149,#262,#267,.T.) ;
#281=EDGE_CURVE('',#262,#255,#280,.F.) ;
#301=EDGE_CURVE('',#262,#300,#298,.F.) ;
#308=EDGE_CURVE('',#307,#255,#305,.T.) ;
#313=EDGE_CURVE('',#300,#307,#312,.F.) ;
#326=EDGE_CURVE('',#307,#300,#325,.F.) ;
#373=EDGE_CURVE('',#370,#372,#344,.T.) ;
#399=EDGE_CURVE('',#372,#370,#374,.T.) ;
#419=EDGE_CURVE('',#416,#418,#414,.F.) ;
#424=EDGE_CURVE('',#370,#418,#423,.F.) ;
#429=EDGE_CURVE('',#416,#372,#428,.T.) ;
#448=EDGE_CURVE('',#418,#416,#438,.F.) ;
#72=EDGE_LOOP('',(#73,#74,#75,#76,#77)) ;
#105=EDGE_LOOP('',(#106,#107,#108,#109,#110)) ;
#119=EDGE_LOOP('',(#120,#121)) ;
#179=EDGE_LOOP('',(#180,#181)) ;
#202=EDGE_LOOP('',(#203,#204,#205)) ;
#219=EDGE_LOOP('',(#220,#221,#222)) ;
#231=EDGE_LOOP('',(#232,#233,#234)) ;
#238=EDGE_LOOP('',(#239,#240,#241)) ;
#269=EDGE_LOOP('',(#270,#271,#272,#273)) ;
#282=EDGE_LOOP('',(#283,#284,#285,#286)) ;
#314=EDGE_LOOP('',(#315,#316,#317,#318)) ;
#327=EDGE_LOOP('',(#328,#329,#330,#331)) ;
#340=EDGE_LOOP('',(#341,#342)) ;
#400=EDGE_LOOP('',(#401,#402)) ;
#430=EDGE_LOOP('',(#431,#432,#433,#434)) ;
#449=EDGE_LOOP('',(#450,#451,#452,#453)) ;
#457=EDGE_LOOP('',(#458,#459)) ;
#78=FACE_OUTER_BOUND('',#72,.T.) ;
#111=FACE_OUTER_BOUND('',#105,.T.) ;
#122=FACE_OUTER_BOUND('',#119,.T.) ;
#206=FACE_OUTER_BOUND('',#202,.T.) ;
#223=FACE_OUTER_BOUND('',#219,.T.) ;
#235=FACE_OUTER_BOUND('',#231,.T.) ;
#242=FACE_OUTER_BOUND('',#238,.T.) ;
#274=FACE_OUTER_BOUND('',#269,.T.) ;
#287=FACE_OUTER_BOUND('',#282,.T.) ;
#319=FACE_OUTER_BOUND('',#314,.T.) ;
#332=FACE_OUTER_BOUND('',#327,.T.) ;
#343=FACE_OUTER_BOUND('',#340,.T.) ;
#435=FACE_OUTER_BOUND('',#430,.T.) ;
#454=FACE_OUTER_BOUND('',#449,.T.) ;
#460=FACE_OUTER_BOUND('',#457,.T.) ;
#40=LINE('Line',#37,#39) ;
#56=LINE('Line',#53,#55) ;
#253=LINE('Line',#250,#252) ;
#267=LINE('Line',#264,#266) ;
#298=LINE('Line',#295,#297) ;
#305=LINE('Line',#302,#304) ;
#423=LINE('Line',#420,#422) ;
#428=LINE('Line',#425,#427) ;
#118=PLANE('',#117) ;
#339=PLANE('',#338) ;
#9=PRODUCT_CATEGORY_RELATIONSHIP(' ',' ',#7,#8) ;
#6=PRODUCT_DEFINITION_FORMATION_WITH_SPECIFIED_SOURCE(' ',' ',#5,.NOT_KNOWN.) ;
#20=SHAPE_DEFINITION_REPRESENTATION(#11,#19) ;
#189=SPHERICAL_SURFACE('',#188,24.26) ;
#213=SPHERICAL_SURFACE('',#212,24.26) ;
#42=VERTEX_POINT('',#41) ;
#44=VERTEX_POINT('',#43) ;
#51=VERTEX_POINT('',#50) ;
#58=VERTEX_POINT('',#57) ;
#65=VERTEX_POINT('',#64) ;
#98=VERTEX_POINT('',#97) ;
#149=VERTEX_POINT('',#148) ;
#151=VERTEX_POINT('',#150) ;
#195=VERTEX_POINT('',#194) ;
#255=VERTEX_POINT('',#254) ;
#262=VERTEX_POINT('',#261) ;
#300=VERTEX_POINT('',#299) ;
#307=VERTEX_POINT('',#306) ;
#370=VERTEX_POINT('',#369) ;
#372=VERTEX_POINT('',#371) ;
#416=VERTEX_POINT('',#415) ;
#418=VERTEX_POINT('',#417) ;
#12=(LENGTH_UNIT()NAMED_UNIT(*)SI_UNIT(.MILLI.,.METRE.)) ;
#13=(NAMED_UNIT(*)PLANE_ANGLE_UNIT()SI_UNIT($,.RADIAN.)) ;
#14=(NAMED_UNIT(*)SI_UNIT($,.STERADIAN.)SOLID_ANGLE_UNIT()) ;
#16=(GEOMETRIC_REPRESENTATION_CONTEXT(3)GLOBAL_UNCERTAINTY_ASSIGNED_CONTEXT((#15))GLOBAL_UNIT_ASSIGNED_CONTEXT((#12,#13,#14))REPRESENTATION_CONTEXT(' ',' ')) ;
ENDSEC;
END-ISO-10303-21;
