ISO-10303-21;
HEADER;
FILE_DESCRIPTION(('CATIA V5R19 STEP'),'2;1');

FILE_NAME ('D1450999_0_1323710000_1323710000.stp','2014-12-09T11:44:17+00:00',('none'),('Weidmueller'),'CATIA Version 5 Release 20 SP 5 (IN-10)','CATIA V5 STEP AP214','none');

FILE_SCHEMA(('AUTOMOTIVE_DESIGN { 1 0 10303 214 1 1 1 1 }'));

ENDSEC;
/* file written by CATIA V5R20 */
DATA;
#5=PRODUCT('PM 2.7/2.6','','VERBINDERMARKIERER\X2\000D\X0\\X2\000A\X0\<Q-CHECKER_SEAL> Q-Checker Version 2.14.8  \X2\000D\X0\\X2\000A\X0\CATIA-Version         : Catia V5 R20 SP5 Build Date 01-06-2014.17.15\X2\000D\X0\\X2\000A\X0\Model size (in KByte) : 0\X2\000D\X0\\X2\000A\X0\Checking date         : 2014-08-18 07:46:14\X2\000D\X0\\X2\000A\X0\Checking profile      : ADMIN / Release_2D-3D - sav20121130 [CATPart]\X2\000D\X0\\X2\000A\X0\Model assessment      : In Ordnung (IO)\X2\000D\X0\\X2\000A\X0\Total weight sum      : 0\X2\000D\X0\\X2\000A\X0\<CROSS_CHECK_SUM>\X2\000D\X0\\X2\000A\X0\  <CHKSUM_DATE> 58577403 </CHKSUM_DATE>\X2\000D\X0\\X2\000A\X0\  <CHKSUM_ENTITIES> -659484182 </CHKSUM_ENTITIES>\X2\000D\X0\\X2\000A\X0\  <CHKSUM_PROFILE> 1594213346 </CHKSUM_PROFILE>\X2\000D\X0\\X2\000A\X0\  <CHKSUM_DIMENSION> -186917087 </CHKSUM_DIMENSION>\X2\000D\X0\\X2\000A\X0\  <CHKSUM_PROJINTERSEC> -896974048 </CHKSUM_PROJINTERSEC>\X2\000D\X0\\X2\000A\X0\  <CHKSUM_IDENTCRV> -896974048 </CHKSUM_IDENTCRV>\X2\000D\X0\\X2\000A\X0\  <CHKSUM_INFINITY> 138018827 </CHKSUM_INFINITY>\X2\000D\X0\\X2\000A\X0\</CROSS_CHECK_SUM>\X2\000D\X0\\X2\000A\X0\</Q-CHECKER_SEAL> \X2\000D\X0\\X2\000A\X0\ \X2\000D\X0\\X2\000A\X0\ \X2\000D\X0\\X2\000A\X0\ \X2\000D\X0\\X2\000A\X0\ \X2\000D\X0\\X2\000A\X0\ \X2\000D\X0\\X2\000A\X0\ \X2\000D\X0\\X2\000A\X0\ \X2\000D\X0\\X2\000A\X0\ \X2\000D\X0\\X2\000A\X0\ \X2\000D\X0\\X2\000A\X0\ \X2\000D\X0\\X2\000A\X0\ \X2\000D\X0\\X2\000A\X0\ \X2\000D\X0\\X2\000A\X0\',(#2)) ;
#2=PRODUCT_CONTEXT(' ',#1,'mechanical') ;
#1=APPLICATION_CONTEXT('automotive design') ;
#10=PRODUCT_DEFINITION('',' ',#6,#3) ;
#3=PRODUCT_DEFINITION_CONTEXT('part definition',#1,' ') ;
#11=PRODUCT_DEFINITION_SHAPE(' ',' ',#10) ;
#495=MECHANICAL_DESIGN_GEOMETRIC_PRESENTATION_REPRESENTATION(' ',(#30),#17) ;
#20=SHAPE_REPRESENTATION(' ',(#19),#17) ;
#19=AXIS2_PLACEMENT_3D(' ',#18,$,$) ;
#35=AXIS2_PLACEMENT_3D('Plane Axis2P3D',#32,#33,#34) ;
#39=AXIS2_PLACEMENT_3D('Circle Axis2P3D',#37,#38,$) ;
#48=AXIS2_PLACEMENT_3D('Circle Axis2P3D',#46,#47,$) ;
#59=AXIS2_PLACEMENT_3D('Cylinder Axis2P3D',#56,#57,#58) ;
#63=AXIS2_PLACEMENT_3D('Circle Axis2P3D',#61,#62,$) ;
#84=AXIS2_PLACEMENT_3D('Circle Axis2P3D',#82,#83,$) ;
#100=AXIS2_PLACEMENT_3D('Circle Axis2P3D',#98,#99,$) ;
#125=AXIS2_PLACEMENT_3D('Circle Axis2P3D',#123,#124,$) ;
#132=AXIS2_PLACEMENT_3D('Circle Axis2P3D',#130,#131,$) ;
#148=AXIS2_PLACEMENT_3D('Circle Axis2P3D',#146,#147,$) ;
#174=AXIS2_PLACEMENT_3D('Plane Axis2P3D',#171,#172,#173) ;
#265=AXIS2_PLACEMENT_3D('Plane Axis2P3D',#262,#263,#264) ;
#296=AXIS2_PLACEMENT_3D('Plane Axis2P3D',#293,#294,#295) ;
#327=AXIS2_PLACEMENT_3D('Plane Axis2P3D',#324,#325,#326) ;
#349=AXIS2_PLACEMENT_3D('Plane Axis2P3D',#346,#347,#348) ;
#373=AXIS2_PLACEMENT_3D('Plane Axis2P3D',#370,#371,#372) ;
#397=AXIS2_PLACEMENT_3D('Plane Axis2P3D',#394,#395,#396) ;
#464=AXIS2_PLACEMENT_3D('Plane Axis2P3D',#461,#462,#463) ;
#480=AXIS2_PLACEMENT_3D('Plane Axis2P3D',#477,#478,#479) ;
#18=CARTESIAN_POINT(' ',(0.,0.,0.)) ;
#32=CARTESIAN_POINT('Axis2P3D Location',(1.3,1.35,8.26636589424E-017)) ;
#37=CARTESIAN_POINT('Axis2P3D Location',(1.3,1.35,8.26636589424E-017)) ;
#41=CARTESIAN_POINT('Vertex',(0.65,1.35,-4.4408920985E-016)) ;
#43=CARTESIAN_POINT('Vertex',(1.95,1.35,-4.4408920985E-016)) ;
#46=CARTESIAN_POINT('Axis2P3D Location',(1.3,1.35,8.26636589424E-017)) ;
#56=CARTESIAN_POINT('Axis2P3D Location',(1.3,1.35,1.4)) ;
#61=CARTESIAN_POINT('Axis2P3D Location',(1.3,1.35,2.8)) ;
#65=CARTESIAN_POINT('Vertex',(1.83480762114,1.71943309053,2.8)) ;
#67=CARTESIAN_POINT('Vertex',(1.95,1.35,2.8)) ;
#70=CARTESIAN_POINT('Line Origine',(1.95,1.35,1.4)) ;
#75=CARTESIAN_POINT('Line Origine',(0.65,1.35,1.4)) ;
#79=CARTESIAN_POINT('Vertex',(0.65,1.35,2.8)) ;
#82=CARTESIAN_POINT('Axis2P3D Location',(1.3,1.35,2.8)) ;
#86=CARTESIAN_POINT('Vertex',(0.765192378865,1.71943309053,2.8)) ;
#90=CARTESIAN_POINT('Control Point',(0.765192378865,1.71943309053,2.8)) ;
#91=CARTESIAN_POINT('Control Point',(0.822693949954,1.80267489868,2.70040435736)) ;
#92=CARTESIAN_POINT('Control Point',(0.888468126097,1.86173355856,2.58645413882)) ;
#93=CARTESIAN_POINT('Control Point',(0.955874809937,1.9066847395,2.46972834127)) ;
#94=CARTESIAN_POINT('Control Point',(1.025,1.93896094947,2.35)) ;
#95=CARTESIAN_POINT('Vertex',(1.025,1.93896094947,2.35)) ;
#98=CARTESIAN_POINT('Axis2P3D Location',(1.3,1.35,2.35)) ;
#102=CARTESIAN_POINT('Vertex',(1.575,1.93896094947,2.35)) ;
#106=CARTESIAN_POINT('Control Point',(1.83480762114,1.71943309053,2.8)) ;
#107=CARTESIAN_POINT('Control Point',(1.77730605005,1.80267489868,2.70040435736)) ;
#108=CARTESIAN_POINT('Control Point',(1.7115318739,1.86173355856,2.58645413882)) ;
#109=CARTESIAN_POINT('Control Point',(1.64412519006,1.9066847395,2.46972834127)) ;
#110=CARTESIAN_POINT('Control Point',(1.575,1.93896094947,2.35)) ;
#123=CARTESIAN_POINT('Axis2P3D Location',(1.3,1.35,2.8)) ;
#127=CARTESIAN_POINT('Vertex',(0.765192378865,0.980566909474,2.8)) ;
#130=CARTESIAN_POINT('Axis2P3D Location',(1.3,1.35,2.8)) ;
#134=CARTESIAN_POINT('Vertex',(1.83480762114,0.980566909474,2.8)) ;
#138=CARTESIAN_POINT('Control Point',(1.83480762114,0.980566909474,2.8)) ;
#139=CARTESIAN_POINT('Control Point',(1.77730605005,0.897325101324,2.70040435736)) ;
#140=CARTESIAN_POINT('Control Point',(1.7115318739,0.838266441436,2.58645413882)) ;
#141=CARTESIAN_POINT('Control Point',(1.64412519006,0.793315260497,2.46972834127)) ;
#142=CARTESIAN_POINT('Control Point',(1.575,0.761039050531,2.35)) ;
#143=CARTESIAN_POINT('Vertex',(1.575,0.761039050531,2.35)) ;
#146=CARTESIAN_POINT('Axis2P3D Location',(1.3,1.35,2.35)) ;
#150=CARTESIAN_POINT('Vertex',(1.025,0.761039050531,2.35)) ;
#154=CARTESIAN_POINT('Control Point',(0.765192378865,0.980566909474,2.8)) ;
#155=CARTESIAN_POINT('Control Point',(0.822693949954,0.897325101324,2.70040435736)) ;
#156=CARTESIAN_POINT('Control Point',(0.888468126097,0.838266441436,2.58645413882)) ;
#157=CARTESIAN_POINT('Control Point',(0.955874809937,0.793315260497,2.46972834127)) ;
#158=CARTESIAN_POINT('Control Point',(1.025,0.761039050531,2.35)) ;
#171=CARTESIAN_POINT('Axis2P3D Location',(1.3,1.35,2.8)) ;
#176=CARTESIAN_POINT('Line Origine',(1.83480762114,0.490283454737,2.8)) ;
#180=CARTESIAN_POINT('Vertex',(1.83480762114,-4.4408920985E-016,2.8)) ;
#183=CARTESIAN_POINT('Line Origine',(1.83480762114,2.20971654526,2.8)) ;
#187=CARTESIAN_POINT('Vertex',(1.83480762114,2.7,2.8)) ;
#190=CARTESIAN_POINT('Line Origine',(2.21740381057,2.7,2.8)) ;
#194=CARTESIAN_POINT('Vertex',(2.6,2.7,2.8)) ;
#197=CARTESIAN_POINT('Line Origine',(2.6,1.35,2.8)) ;
#201=CARTESIAN_POINT('Vertex',(2.6,-6.66133814775E-016,2.8)) ;
#204=CARTESIAN_POINT('Line Origine',(2.21740381057,-5.55111512313E-016,2.8)) ;
#219=CARTESIAN_POINT('Line Origine',(0.765192378865,0.490283454737,2.8)) ;
#223=CARTESIAN_POINT('Vertex',(0.765192378865,-4.4408920985E-016,2.8)) ;
#226=CARTESIAN_POINT('Line Origine',(0.382596189432,-3.33066907388E-016,2.8)) ;
#230=CARTESIAN_POINT('Vertex',(5.67172870401E-017,5.77315972805E-015,2.8)) ;
#233=CARTESIAN_POINT('Line Origine',(2.22044604925E-016,1.35,2.8)) ;
#237=CARTESIAN_POINT('Vertex',(3.8737192281E-016,2.7,2.8)) ;
#240=CARTESIAN_POINT('Line Origine',(0.382596189432,2.7,2.8)) ;
#244=CARTESIAN_POINT('Vertex',(0.765192378865,2.7,2.8)) ;
#247=CARTESIAN_POINT('Line Origine',(0.765192378865,2.20971654526,2.8)) ;
#262=CARTESIAN_POINT('Axis2P3D Location',(2.6,-7.11903324584E-016,2.8)) ;
#267=CARTESIAN_POINT('Line Origine',(2.6,-7.42519494563E-016,3.3)) ;
#271=CARTESIAN_POINT('Vertex',(2.6,-6.66133814775E-016,3.8)) ;
#274=CARTESIAN_POINT('Line Origine',(2.6,2.7,3.3)) ;
#278=CARTESIAN_POINT('Vertex',(2.6,2.7,3.8)) ;
#281=CARTESIAN_POINT('Line Origine',(2.6,1.35,3.8)) ;
#293=CARTESIAN_POINT('Axis2P3D Location',(3.3065463577E-016,2.7,2.8)) ;
#298=CARTESIAN_POINT('Line Origine',(3.3065463577E-016,2.7,3.3)) ;
#302=CARTESIAN_POINT('Vertex',(3.8737192281E-016,2.7,3.8)) ;
#305=CARTESIAN_POINT('Line Origine',(7.35807699188E-031,5.74254355807E-015,3.3)) ;
#309=CARTESIAN_POINT('Vertex',(5.67172870401E-017,5.77315972805E-015,3.8)) ;
#312=CARTESIAN_POINT('Line Origine',(1.65327317885E-016,1.35,3.8)) ;
#324=CARTESIAN_POINT('Axis2P3D Location',(1.3,1.35,3.8)) ;
#329=CARTESIAN_POINT('Line Origine',(1.3,-4.4408920985E-016,3.8)) ;
#334=CARTESIAN_POINT('Line Origine',(1.3,2.7,3.8)) ;
#346=CARTESIAN_POINT('Axis2P3D Location',(1.83480762114,1.35,2.8)) ;
#351=CARTESIAN_POINT('Line Origine',(1.575,2.31948047473,2.35)) ;
#355=CARTESIAN_POINT('Vertex',(1.575,2.7,2.35)) ;
#358=CARTESIAN_POINT('Line Origine',(1.70490381057,2.7,2.575)) ;
#370=CARTESIAN_POINT('Axis2P3D Location',(1.025,1.35,2.35)) ;
#375=CARTESIAN_POINT('Line Origine',(0.895096189432,2.7,2.575)) ;
#379=CARTESIAN_POINT('Vertex',(1.025,2.7,2.35)) ;
#382=CARTESIAN_POINT('Line Origine',(1.025,2.31948047473,2.35)) ;
#394=CARTESIAN_POINT('Axis2P3D Location',(1.575,1.35,2.35)) ;
#399=CARTESIAN_POINT('Line Origine',(1.3,2.7,2.35)) ;
#411=CARTESIAN_POINT('Line Origine',(1.70490381057,-4.4408920985E-016,2.575)) ;
#415=CARTESIAN_POINT('Vertex',(1.575,-2.22044604925E-016,2.35)) ;
#418=CARTESIAN_POINT('Line Origine',(1.575,0.380519525265,2.35)) ;
#430=CARTESIAN_POINT('Line Origine',(1.3,-4.4408920985E-016,2.35)) ;
#434=CARTESIAN_POINT('Vertex',(1.025,-2.22044604925E-016,2.35)) ;
#437=CARTESIAN_POINT('Line Origine',(1.025,0.380519525265,2.35)) ;
#449=CARTESIAN_POINT('Line Origine',(0.895096189432,-4.4408920985E-016,2.575)) ;
#461=CARTESIAN_POINT('Axis2P3D Location',(1.08610030845E-016,2.7,2.8)) ;
#477=CARTESIAN_POINT('Axis2P3D Location',(2.6,-4.89858719659E-016,2.8)) ;
#33=DIRECTION('Axis2P3D Direction',(7.49879891331E-033,6.12323399574E-017,-1.)) ;
#34=DIRECTION('Axis2P3D XDirection',(-1.,1.22464679915E-016,0.)) ;
#38=DIRECTION('Axis2P3D Direction',(7.49879891331E-033,6.12323399574E-017,-1.)) ;
#47=DIRECTION('Axis2P3D Direction',(7.49879891331E-033,6.12323399574E-017,-1.)) ;
#57=DIRECTION('Axis2P3D Direction',(7.49879891331E-033,6.12323399574E-017,-1.)) ;
#58=DIRECTION('Axis2P3D XDirection',(-1.,1.22464679915E-016,0.)) ;
#62=DIRECTION('Axis2P3D Direction',(7.49879891331E-033,6.12323399574E-017,-1.)) ;
#71=DIRECTION('Vector Direction',(0.,0.,-1.)) ;
#76=DIRECTION('Vector Direction',(0.,0.,-1.)) ;
#83=DIRECTION('Axis2P3D Direction',(7.49879891331E-033,6.12323399574E-017,-1.)) ;
#99=DIRECTION('Axis2P3D Direction',(7.49879891331E-033,6.12323399574E-017,-1.)) ;
#124=DIRECTION('Axis2P3D Direction',(7.49879891331E-033,6.12323399574E-017,-1.)) ;
#131=DIRECTION('Axis2P3D Direction',(7.49879891331E-033,6.12323399574E-017,-1.)) ;
#147=DIRECTION('Axis2P3D Direction',(7.49879891331E-033,6.12323399574E-017,-1.)) ;
#172=DIRECTION('Axis2P3D Direction',(-7.49879891331E-033,-6.12323399574E-017,1.)) ;
#173=DIRECTION('Axis2P3D XDirection',(1.,-1.22464679915E-016,0.)) ;
#177=DIRECTION('Vector Direction',(2.26445133708E-016,1.,0.)) ;
#184=DIRECTION('Vector Direction',(2.26445133708E-016,1.,0.)) ;
#191=DIRECTION('Vector Direction',(1.,0.,0.)) ;
#198=DIRECTION('Vector Direction',(0.,1.,0.)) ;
#205=DIRECTION('Vector Direction',(-1.,2.90181411967E-016,0.)) ;
#220=DIRECTION('Vector Direction',(1.13222566854E-016,1.,0.)) ;
#227=DIRECTION('Vector Direction',(-1.,2.90181411967E-016,0.)) ;
#234=DIRECTION('Vector Direction',(-1.22464679915E-016,-1.,0.)) ;
#241=DIRECTION('Vector Direction',(1.,-5.80362823933E-016,0.)) ;
#248=DIRECTION('Vector Direction',(1.13222566854E-016,1.,0.)) ;
#263=DIRECTION('Axis2P3D Direction',(1.,-1.22464679915E-016,0.)) ;
#264=DIRECTION('Axis2P3D XDirection',(1.22464679915E-016,1.,6.12323399574E-017)) ;
#268=DIRECTION('Vector Direction',(0.,-6.12323399574E-017,1.)) ;
#275=DIRECTION('Vector Direction',(0.,0.,1.)) ;
#282=DIRECTION('Vector Direction',(1.6447748513E-016,1.,0.)) ;
#294=DIRECTION('Axis2P3D Direction',(-1.,1.22464679915E-016,0.)) ;
#295=DIRECTION('Axis2P3D XDirection',(-1.22464679915E-016,-1.,-6.12323399574E-017)) ;
#299=DIRECTION('Vector Direction',(0.,0.,1.)) ;
#306=DIRECTION('Vector Direction',(-7.49879891331E-033,-6.12323399574E-017,1.)) ;
#313=DIRECTION('Vector Direction',(-1.22464679915E-016,-1.,0.)) ;
#325=DIRECTION('Axis2P3D Direction',(-7.49879891331E-033,-6.12323399574E-017,1.)) ;
#326=DIRECTION('Axis2P3D XDirection',(1.,-1.22464679915E-016,0.)) ;
#330=DIRECTION('Vector Direction',(-1.,1.7080354225E-016,0.)) ;
#335=DIRECTION('Vector Direction',(1.,-1.7080354225E-016,0.)) ;
#347=DIRECTION('Axis2P3D Direction',(0.866025403784,-7.54413538938E-017,-0.5)) ;
#348=DIRECTION('Axis2P3D XDirection',(-0.5,1.14261101894E-016,-0.866025403784)) ;
#352=DIRECTION('Vector Direction',(2.917650609E-016,1.,0.)) ;
#359=DIRECTION('Vector Direction',(-0.5,0.,-0.866025403784)) ;
#371=DIRECTION('Axis2P3D Direction',(-0.866025403784,1.36673693851E-016,-0.5)) ;
#372=DIRECTION('Axis2P3D XDirection',(-0.5,8.20357802112E-018,0.866025403784)) ;
#376=DIRECTION('Vector Direction',(-0.5,0.,0.866025403784)) ;
#383=DIRECTION('Vector Direction',(2.917650609E-016,1.,0.)) ;
#395=DIRECTION('Axis2P3D Direction',(7.49879891331E-033,6.12323399574E-017,-1.)) ;
#396=DIRECTION('Axis2P3D XDirection',(-1.,1.22464679915E-016,0.)) ;
#400=DIRECTION('Vector Direction',(-1.,0.,0.)) ;
#412=DIRECTION('Vector Direction',(-0.5,0.,-0.866025403784)) ;
#419=DIRECTION('Vector Direction',(2.917650609E-016,1.,0.)) ;
#431=DIRECTION('Vector Direction',(-1.,0.,0.)) ;
#438=DIRECTION('Vector Direction',(2.917650609E-016,1.,0.)) ;
#450=DIRECTION('Vector Direction',(-0.5,0.,0.866025403784)) ;
#462=DIRECTION('Axis2P3D Direction',(-1.22464679915E-016,-1.,-6.12323399574E-017)) ;
#463=DIRECTION('Axis2P3D XDirection',(1.,-1.22464679915E-016,0.)) ;
#478=DIRECTION('Axis2P3D Direction',(1.22464679915E-016,1.,6.12323399574E-017)) ;
#479=DIRECTION('Axis2P3D XDirection',(-1.,1.22464679915E-016,0.)) ;
#8=PRODUCT_RELATED_PRODUCT_CATEGORY('part',$,(#5)) ;
#7=PRODUCT_CATEGORY('part','specification') ;
#30=STYLED_ITEM(' ',(#29),#22) ;
#29=PRESENTATION_STYLE_ASSIGNMENT((#28)) ;
#28=SURFACE_STYLE_USAGE(.BOTH.,#27) ;
#27=SURFACE_SIDE_STYLE(' ',(#26)) ;
#26=SURFACE_STYLE_FILL_AREA(#25) ;
#25=FILL_AREA_STYLE(' ',(#24)) ;
#24=FILL_AREA_STYLE_COLOUR(' ',#23) ;
#72=VECTOR('Line Direction',#71,1.) ;
#77=VECTOR('Line Direction',#76,1.) ;
#178=VECTOR('Line Direction',#177,1.) ;
#185=VECTOR('Line Direction',#184,1.) ;
#192=VECTOR('Line Direction',#191,1.) ;
#199=VECTOR('Line Direction',#198,1.) ;
#206=VECTOR('Line Direction',#205,1.) ;
#221=VECTOR('Line Direction',#220,1.) ;
#228=VECTOR('Line Direction',#227,1.) ;
#235=VECTOR('Line Direction',#234,1.) ;
#242=VECTOR('Line Direction',#241,1.) ;
#249=VECTOR('Line Direction',#248,1.) ;
#269=VECTOR('Line Direction',#268,1.) ;
#276=VECTOR('Line Direction',#275,1.) ;
#283=VECTOR('Line Direction',#282,1.) ;
#300=VECTOR('Line Direction',#299,1.) ;
#307=VECTOR('Line Direction',#306,1.) ;
#314=VECTOR('Line Direction',#313,1.) ;
#331=VECTOR('Line Direction',#330,1.) ;
#336=VECTOR('Line Direction',#335,1.) ;
#353=VECTOR('Line Direction',#352,1.) ;
#360=VECTOR('Line Direction',#359,1.) ;
#377=VECTOR('Line Direction',#376,1.) ;
#384=VECTOR('Line Direction',#383,1.) ;
#401=VECTOR('Line Direction',#400,1.) ;
#413=VECTOR('Line Direction',#412,1.) ;
#420=VECTOR('Line Direction',#419,1.) ;
#432=VECTOR('Line Direction',#431,1.) ;
#439=VECTOR('Line Direction',#438,1.) ;
#451=VECTOR('Line Direction',#450,1.) ;
#16=UNCERTAINTY_MEASURE_WITH_UNIT(LENGTH_MEASURE(0.005),#12,'distance_accuracy_value','CONFUSED CURVE UNCERTAINTY') ;
#494=SHAPE_REPRESENTATION_RELATIONSHIP(' ',' ',#20,#493) ;
#52=ORIENTED_EDGE('',*,*,#45,.T.) ;
#53=ORIENTED_EDGE('',*,*,#50,.T.) ;
#113=ORIENTED_EDGE('',*,*,#69,.T.) ;
#114=ORIENTED_EDGE('',*,*,#74,.T.) ;
#115=ORIENTED_EDGE('',*,*,#45,.F.) ;
#116=ORIENTED_EDGE('',*,*,#81,.F.) ;
#117=ORIENTED_EDGE('',*,*,#88,.T.) ;
#118=ORIENTED_EDGE('',*,*,#97,.T.) ;
#119=ORIENTED_EDGE('',*,*,#104,.T.) ;
#120=ORIENTED_EDGE('',*,*,#111,.F.) ;
#161=ORIENTED_EDGE('',*,*,#129,.T.) ;
#162=ORIENTED_EDGE('',*,*,#81,.T.) ;
#163=ORIENTED_EDGE('',*,*,#50,.F.) ;
#164=ORIENTED_EDGE('',*,*,#74,.F.) ;
#165=ORIENTED_EDGE('',*,*,#136,.T.) ;
#166=ORIENTED_EDGE('',*,*,#145,.T.) ;
#167=ORIENTED_EDGE('',*,*,#152,.T.) ;
#168=ORIENTED_EDGE('',*,*,#159,.F.) ;
#210=ORIENTED_EDGE('',*,*,#182,.T.) ;
#211=ORIENTED_EDGE('',*,*,#136,.F.) ;
#212=ORIENTED_EDGE('',*,*,#69,.F.) ;
#213=ORIENTED_EDGE('',*,*,#189,.T.) ;
#214=ORIENTED_EDGE('',*,*,#196,.F.) ;
#215=ORIENTED_EDGE('',*,*,#203,.F.) ;
#216=ORIENTED_EDGE('',*,*,#208,.F.) ;
#253=ORIENTED_EDGE('',*,*,#88,.F.) ;
#254=ORIENTED_EDGE('',*,*,#129,.F.) ;
#255=ORIENTED_EDGE('',*,*,#225,.F.) ;
#256=ORIENTED_EDGE('',*,*,#232,.F.) ;
#257=ORIENTED_EDGE('',*,*,#239,.F.) ;
#258=ORIENTED_EDGE('',*,*,#246,.F.) ;
#259=ORIENTED_EDGE('',*,*,#251,.F.) ;
#287=ORIENTED_EDGE('',*,*,#273,.F.) ;
#288=ORIENTED_EDGE('',*,*,#203,.T.) ;
#289=ORIENTED_EDGE('',*,*,#280,.T.) ;
#290=ORIENTED_EDGE('',*,*,#285,.F.) ;
#318=ORIENTED_EDGE('',*,*,#304,.F.) ;
#319=ORIENTED_EDGE('',*,*,#239,.T.) ;
#320=ORIENTED_EDGE('',*,*,#311,.T.) ;
#321=ORIENTED_EDGE('',*,*,#316,.F.) ;
#340=ORIENTED_EDGE('',*,*,#316,.T.) ;
#341=ORIENTED_EDGE('',*,*,#333,.T.) ;
#342=ORIENTED_EDGE('',*,*,#285,.T.) ;
#343=ORIENTED_EDGE('',*,*,#338,.T.) ;
#364=ORIENTED_EDGE('',*,*,#357,.T.) ;
#365=ORIENTED_EDGE('',*,*,#362,.F.) ;
#366=ORIENTED_EDGE('',*,*,#189,.F.) ;
#367=ORIENTED_EDGE('',*,*,#111,.T.) ;
#388=ORIENTED_EDGE('',*,*,#251,.T.) ;
#389=ORIENTED_EDGE('',*,*,#381,.F.) ;
#390=ORIENTED_EDGE('',*,*,#386,.F.) ;
#391=ORIENTED_EDGE('',*,*,#97,.F.) ;
#405=ORIENTED_EDGE('',*,*,#386,.T.) ;
#406=ORIENTED_EDGE('',*,*,#403,.F.) ;
#407=ORIENTED_EDGE('',*,*,#357,.F.) ;
#408=ORIENTED_EDGE('',*,*,#104,.F.) ;
#424=ORIENTED_EDGE('',*,*,#182,.F.) ;
#425=ORIENTED_EDGE('',*,*,#417,.T.) ;
#426=ORIENTED_EDGE('',*,*,#422,.T.) ;
#427=ORIENTED_EDGE('',*,*,#145,.F.) ;
#443=ORIENTED_EDGE('',*,*,#422,.F.) ;
#444=ORIENTED_EDGE('',*,*,#436,.T.) ;
#445=ORIENTED_EDGE('',*,*,#441,.T.) ;
#446=ORIENTED_EDGE('',*,*,#152,.F.) ;
#455=ORIENTED_EDGE('',*,*,#441,.F.) ;
#456=ORIENTED_EDGE('',*,*,#453,.T.) ;
#457=ORIENTED_EDGE('',*,*,#225,.T.) ;
#458=ORIENTED_EDGE('',*,*,#159,.T.) ;
#467=ORIENTED_EDGE('',*,*,#280,.F.) ;
#468=ORIENTED_EDGE('',*,*,#196,.T.) ;
#469=ORIENTED_EDGE('',*,*,#362,.T.) ;
#470=ORIENTED_EDGE('',*,*,#403,.T.) ;
#471=ORIENTED_EDGE('',*,*,#381,.T.) ;
#472=ORIENTED_EDGE('',*,*,#246,.T.) ;
#473=ORIENTED_EDGE('',*,*,#304,.T.) ;
#474=ORIENTED_EDGE('',*,*,#338,.F.) ;
#483=ORIENTED_EDGE('',*,*,#311,.F.) ;
#484=ORIENTED_EDGE('',*,*,#232,.T.) ;
#485=ORIENTED_EDGE('',*,*,#453,.F.) ;
#486=ORIENTED_EDGE('',*,*,#436,.F.) ;
#487=ORIENTED_EDGE('',*,*,#417,.F.) ;
#488=ORIENTED_EDGE('',*,*,#208,.T.) ;
#489=ORIENTED_EDGE('',*,*,#273,.T.) ;
#490=ORIENTED_EDGE('',*,*,#333,.F.) ;
#31=CLOSED_SHELL('Closed Shell',(#55,#122,#170,#218,#261,#292,#323,#345,#369,#393,#410,#429,#448,#460,#476,#492)) ;
#493=ADVANCED_BREP_SHAPE_REPRESENTATION('NONE',(#22),#17) ;
#55=ADVANCED_FACE('S3D-gedreht',(#54),#36,.T.) ;
#122=ADVANCED_FACE('S3D-gedreht',(#121),#60,.T.) ;
#170=ADVANCED_FACE('S3D-gedreht',(#169),#60,.T.) ;
#218=ADVANCED_FACE('S3D-gedreht',(#217),#175,.F.) ;
#261=ADVANCED_FACE('S3D-gedreht',(#260),#175,.F.) ;
#292=ADVANCED_FACE('S3D-gedreht',(#291),#266,.T.) ;
#323=ADVANCED_FACE('S3D-gedreht',(#322),#297,.T.) ;
#345=ADVANCED_FACE('S3D-gedreht',(#344),#328,.T.) ;
#369=ADVANCED_FACE('S3D-gedreht',(#368),#350,.T.) ;
#393=ADVANCED_FACE('S3D-gedreht',(#392),#374,.T.) ;
#410=ADVANCED_FACE('S3D-gedreht',(#409),#398,.T.) ;
#429=ADVANCED_FACE('S3D-gedreht',(#428),#350,.T.) ;
#448=ADVANCED_FACE('S3D-gedreht',(#447),#398,.T.) ;
#460=ADVANCED_FACE('S3D-gedreht',(#459),#374,.T.) ;
#476=ADVANCED_FACE('S3D-gedreht',(#475),#465,.F.) ;
#492=ADVANCED_FACE('S3D-gedreht',(#491),#481,.F.) ;
#4=APPLICATION_PROTOCOL_DEFINITION('international standard','automotive_design',2001,#1) ;
#89=B_SPLINE_CURVE_WITH_KNOTS('',4,(#90,#91,#92,#93,#94),.UNSPECIFIED.,.F.,.U.,(5,5),(0.,0.80309244967),.UNSPECIFIED.) ;
#105=B_SPLINE_CURVE_WITH_KNOTS('',4,(#106,#107,#108,#109,#110),.UNSPECIFIED.,.F.,.U.,(5,5),(0.,0.803092449671),.UNSPECIFIED.) ;
#137=B_SPLINE_CURVE_WITH_KNOTS('',4,(#138,#139,#140,#141,#142),.UNSPECIFIED.,.F.,.U.,(5,5),(0.,0.803092449669),.UNSPECIFIED.) ;
#153=B_SPLINE_CURVE_WITH_KNOTS('',4,(#154,#155,#156,#157,#158),.UNSPECIFIED.,.F.,.U.,(5,5),(0.,0.803092449669),.UNSPECIFIED.) ;
#22=MANIFOLD_SOLID_BREP('S3D-gedreht',#31) ;
#40=CIRCLE('generated circle',#39,0.65) ;
#49=CIRCLE('generated circle',#48,0.65) ;
#64=CIRCLE('generated circle',#63,0.65) ;
#85=CIRCLE('generated circle',#84,0.65) ;
#101=CIRCLE('generated circle',#100,0.65) ;
#126=CIRCLE('generated circle',#125,0.65) ;
#133=CIRCLE('generated circle',#132,0.65) ;
#149=CIRCLE('generated circle',#148,0.65) ;
#60=CYLINDRICAL_SURFACE('generated cylinder',#59,0.65) ;
#23=DRAUGHTING_PRE_DEFINED_COLOUR('white') ;
#45=EDGE_CURVE('',#42,#44,#40,.T.) ;
#50=EDGE_CURVE('',#44,#42,#49,.T.) ;
#69=EDGE_CURVE('',#66,#68,#64,.T.) ;
#74=EDGE_CURVE('',#68,#44,#73,.T.) ;
#81=EDGE_CURVE('',#80,#42,#78,.T.) ;
#88=EDGE_CURVE('',#80,#87,#85,.T.) ;
#97=EDGE_CURVE('',#87,#96,#89,.T.) ;
#104=EDGE_CURVE('',#96,#103,#101,.T.) ;
#111=EDGE_CURVE('',#66,#103,#105,.T.) ;
#129=EDGE_CURVE('',#128,#80,#126,.T.) ;
#136=EDGE_CURVE('',#68,#135,#133,.T.) ;
#145=EDGE_CURVE('',#135,#144,#137,.T.) ;
#152=EDGE_CURVE('',#144,#151,#149,.T.) ;
#159=EDGE_CURVE('',#128,#151,#153,.T.) ;
#182=EDGE_CURVE('',#181,#135,#179,.T.) ;
#189=EDGE_CURVE('',#66,#188,#186,.T.) ;
#196=EDGE_CURVE('',#195,#188,#193,.F.) ;
#203=EDGE_CURVE('',#202,#195,#200,.T.) ;
#208=EDGE_CURVE('',#181,#202,#207,.F.) ;
#225=EDGE_CURVE('',#224,#128,#222,.T.) ;
#232=EDGE_CURVE('',#231,#224,#229,.F.) ;
#239=EDGE_CURVE('',#238,#231,#236,.T.) ;
#246=EDGE_CURVE('',#245,#238,#243,.F.) ;
#251=EDGE_CURVE('',#87,#245,#250,.T.) ;
#273=EDGE_CURVE('',#202,#272,#270,.T.) ;
#280=EDGE_CURVE('',#195,#279,#277,.T.) ;
#285=EDGE_CURVE('',#272,#279,#284,.T.) ;
#304=EDGE_CURVE('',#238,#303,#301,.T.) ;
#311=EDGE_CURVE('',#231,#310,#308,.T.) ;
#316=EDGE_CURVE('',#303,#310,#315,.T.) ;
#333=EDGE_CURVE('',#310,#272,#332,.F.) ;
#338=EDGE_CURVE('',#279,#303,#337,.F.) ;
#357=EDGE_CURVE('',#103,#356,#354,.T.) ;
#362=EDGE_CURVE('',#188,#356,#361,.T.) ;
#381=EDGE_CURVE('',#380,#245,#378,.T.) ;
#386=EDGE_CURVE('',#96,#380,#385,.T.) ;
#403=EDGE_CURVE('',#356,#380,#402,.T.) ;
#417=EDGE_CURVE('',#181,#416,#414,.T.) ;
#422=EDGE_CURVE('',#416,#144,#421,.T.) ;
#436=EDGE_CURVE('',#416,#435,#433,.T.) ;
#441=EDGE_CURVE('',#435,#151,#440,.T.) ;
#453=EDGE_CURVE('',#435,#224,#452,.T.) ;
#51=EDGE_LOOP('',(#52,#53)) ;
#112=EDGE_LOOP('',(#113,#114,#115,#116,#117,#118,#119,#120)) ;
#160=EDGE_LOOP('',(#161,#162,#163,#164,#165,#166,#167,#168)) ;
#209=EDGE_LOOP('',(#210,#211,#212,#213,#214,#215,#216)) ;
#252=EDGE_LOOP('',(#253,#254,#255,#256,#257,#258,#259)) ;
#286=EDGE_LOOP('',(#287,#288,#289,#290)) ;
#317=EDGE_LOOP('',(#318,#319,#320,#321)) ;
#339=EDGE_LOOP('',(#340,#341,#342,#343)) ;
#363=EDGE_LOOP('',(#364,#365,#366,#367)) ;
#387=EDGE_LOOP('',(#388,#389,#390,#391)) ;
#404=EDGE_LOOP('',(#405,#406,#407,#408)) ;
#423=EDGE_LOOP('',(#424,#425,#426,#427)) ;
#442=EDGE_LOOP('',(#443,#444,#445,#446)) ;
#454=EDGE_LOOP('',(#455,#456,#457,#458)) ;
#466=EDGE_LOOP('',(#467,#468,#469,#470,#471,#472,#473,#474)) ;
#482=EDGE_LOOP('',(#483,#484,#485,#486,#487,#488,#489,#490)) ;
#54=FACE_OUTER_BOUND('',#51,.T.) ;
#121=FACE_OUTER_BOUND('',#112,.T.) ;
#169=FACE_OUTER_BOUND('',#160,.T.) ;
#217=FACE_OUTER_BOUND('',#209,.T.) ;
#260=FACE_OUTER_BOUND('',#252,.T.) ;
#291=FACE_OUTER_BOUND('',#286,.T.) ;
#322=FACE_OUTER_BOUND('',#317,.T.) ;
#344=FACE_OUTER_BOUND('',#339,.T.) ;
#368=FACE_OUTER_BOUND('',#363,.T.) ;
#392=FACE_OUTER_BOUND('',#387,.T.) ;
#409=FACE_OUTER_BOUND('',#404,.T.) ;
#428=FACE_OUTER_BOUND('',#423,.T.) ;
#447=FACE_OUTER_BOUND('',#442,.T.) ;
#459=FACE_OUTER_BOUND('',#454,.T.) ;
#475=FACE_OUTER_BOUND('',#466,.T.) ;
#491=FACE_OUTER_BOUND('',#482,.T.) ;
#73=LINE('Line',#70,#72) ;
#78=LINE('Line',#75,#77) ;
#179=LINE('Line',#176,#178) ;
#186=LINE('Line',#183,#185) ;
#193=LINE('Line',#190,#192) ;
#200=LINE('Line',#197,#199) ;
#207=LINE('Line',#204,#206) ;
#222=LINE('Line',#219,#221) ;
#229=LINE('Line',#226,#228) ;
#236=LINE('Line',#233,#235) ;
#243=LINE('Line',#240,#242) ;
#250=LINE('Line',#247,#249) ;
#270=LINE('Line',#267,#269) ;
#277=LINE('Line',#274,#276) ;
#284=LINE('Line',#281,#283) ;
#301=LINE('Line',#298,#300) ;
#308=LINE('Line',#305,#307) ;
#315=LINE('Line',#312,#314) ;
#332=LINE('Line',#329,#331) ;
#337=LINE('Line',#334,#336) ;
#354=LINE('Line',#351,#353) ;
#361=LINE('Line',#358,#360) ;
#378=LINE('Line',#375,#377) ;
#385=LINE('Line',#382,#384) ;
#402=LINE('Line',#399,#401) ;
#414=LINE('Line',#411,#413) ;
#421=LINE('Line',#418,#420) ;
#433=LINE('Line',#430,#432) ;
#440=LINE('Line',#437,#439) ;
#452=LINE('Line',#449,#451) ;
#36=PLANE('',#35) ;
#175=PLANE('',#174) ;
#266=PLANE('',#265) ;
#297=PLANE('',#296) ;
#328=PLANE('',#327) ;
#350=PLANE('',#349) ;
#374=PLANE('',#373) ;
#398=PLANE('',#397) ;
#465=PLANE('',#464) ;
#481=PLANE('',#480) ;
#14=PLANE_ANGLE_MEASURE_WITH_UNIT(PLANE_ANGLE_MEASURE(0.0174532925199),#13) ;
#9=PRODUCT_CATEGORY_RELATIONSHIP(' ',' ',#7,#8) ;
#6=PRODUCT_DEFINITION_FORMATION_WITH_SPECIFIED_SOURCE('',' ',#5,.NOT_KNOWN.) ;
#21=SHAPE_DEFINITION_REPRESENTATION(#11,#20) ;
#42=VERTEX_POINT('',#41) ;
#44=VERTEX_POINT('',#43) ;
#66=VERTEX_POINT('',#65) ;
#68=VERTEX_POINT('',#67) ;
#80=VERTEX_POINT('',#79) ;
#87=VERTEX_POINT('',#86) ;
#96=VERTEX_POINT('',#95) ;
#103=VERTEX_POINT('',#102) ;
#128=VERTEX_POINT('',#127) ;
#135=VERTEX_POINT('',#134) ;
#144=VERTEX_POINT('',#143) ;
#151=VERTEX_POINT('',#150) ;
#181=VERTEX_POINT('',#180) ;
#188=VERTEX_POINT('',#187) ;
#195=VERTEX_POINT('',#194) ;
#202=VERTEX_POINT('',#201) ;
#224=VERTEX_POINT('',#223) ;
#231=VERTEX_POINT('',#230) ;
#238=VERTEX_POINT('',#237) ;
#245=VERTEX_POINT('',#244) ;
#272=VERTEX_POINT('',#271) ;
#279=VERTEX_POINT('',#278) ;
#303=VERTEX_POINT('',#302) ;
#310=VERTEX_POINT('',#309) ;
#356=VERTEX_POINT('',#355) ;
#380=VERTEX_POINT('',#379) ;
#416=VERTEX_POINT('',#415) ;
#435=VERTEX_POINT('',#434) ;
#12=(LENGTH_UNIT()NAMED_UNIT(*)SI_UNIT(.MILLI.,.METRE.)) ;
#13=(NAMED_UNIT(*)PLANE_ANGLE_UNIT()SI_UNIT($,.RADIAN.)) ;
#15=(NAMED_UNIT(*)SI_UNIT($,.STERADIAN.)SOLID_ANGLE_UNIT()) ;
#17=(GEOMETRIC_REPRESENTATION_CONTEXT(3)GLOBAL_UNCERTAINTY_ASSIGNED_CONTEXT((#16))GLOBAL_UNIT_ASSIGNED_CONTEXT((#12,#13,#15))REPRESENTATION_CONTEXT(' ',' ')) ;
ENDSEC;
END-ISO-10303-21;
