ISO-10303-21;
HEADER;
FILE_DESCRIPTION(('CATIA V5 STEP Exchange','CAx-IF Rec.Pracs.--- Model Styling and Organization---1.5--- 2016-08-15','CAx-IF Rec.Pracs.---Supplemental Geometry---1.0---2011-11-01','CAx-IF Rec.Pracs.--- Composite Materials ---1.1---2010-07-15'),'2;1');

FILE_NAME ('706717-1_3_2652320000_2652320000.stp','2024-06-11T08:21:12+00:00',('none'),('Weidmueller'),'CATIA Version 5-6 Release 2022 SP4 HF5','CATIA V5 STEP AP214 v3','none');

FILE_SCHEMA(('AUTOMOTIVE_DESIGN { 1 0 10303 214 1 1 1 1 }'));

ENDSEC;
DATA;
#5=PRODUCT('CABTITE BP 4MM PA','CABTITE BP 4MM PA',' ',(#2)) ;
#2=PRODUCT_CONTEXT(' ',#1,'mechanical') ;
#1=APPLICATION_CONTEXT('automotive design') ;
#10=PRODUCT_DEFINITION(' ',' ',#6,#3) ;
#3=PRODUCT_DEFINITION_CONTEXT('part definition',#1,' ') ;
#11=PRODUCT_DEFINITION_SHAPE(' ',' ',#10) ;
#348=MECHANICAL_DESIGN_GEOMETRIC_PRESENTATION_REPRESENTATION(' ',(#87,#113,#184,#208,#225,#237,#244,#276,#289,#321,#334,#345,#29),#16) ;
#19=SHAPE_REPRESENTATION(' ',(#18),#16) ;
#18=AXIS2_PLACEMENT_3D(' ',#17,$,$) ;
#35=AXIS2_PLACEMENT_3D('Cylinder Axis2P3D',#32,#33,#34) ;
#48=AXIS2_PLACEMENT_3D('Circle Axis2P3D',#46,#47,$) ;
#62=AXIS2_PLACEMENT_3D('Circle Axis2P3D',#60,#61,$) ;
#69=AXIS2_PLACEMENT_3D('Circle Axis2P3D',#67,#68,$) ;
#90=AXIS2_PLACEMENT_3D('Circle Axis2P3D',#88,#89,$) ;
#95=AXIS2_PLACEMENT_3D('Circle Axis2P3D',#93,#94,$) ;
#102=AXIS2_PLACEMENT_3D('Circle Axis2P3D',#100,#101,$) ;
#117=AXIS2_PLACEMENT_3D('Plane Axis2P3D',#114,#115,#116) ;
#188=AXIS2_PLACEMENT_3D('Sphere Axis2P3D',#185,#186,#187) ;
#192=AXIS2_PLACEMENT_3D('Circle Axis2P3D',#190,#191,$) ;
#199=AXIS2_PLACEMENT_3D('Circle Axis2P3D',#197,#198,$) ;
#212=AXIS2_PLACEMENT_3D('Sphere Axis2P3D',#209,#210,#211) ;
#216=AXIS2_PLACEMENT_3D('Circle Axis2P3D',#214,#215,$) ;
#228=AXIS2_PLACEMENT_3D('Circle Axis2P3D',#226,#227,$) ;
#248=AXIS2_PLACEMENT_3D('Cylinder Axis2P3D',#245,#246,#247) ;
#259=AXIS2_PLACEMENT_3D('Circle Axis2P3D',#257,#258,$) ;
#279=AXIS2_PLACEMENT_3D('Circle Axis2P3D',#277,#278,$) ;
#293=AXIS2_PLACEMENT_3D('Cone Axis2P3D',#290,#291,#292) ;
#311=AXIS2_PLACEMENT_3D('Circle Axis2P3D',#309,#310,$) ;
#324=AXIS2_PLACEMENT_3D('Circle Axis2P3D',#322,#323,$) ;
#338=AXIS2_PLACEMENT_3D('Plane Axis2P3D',#335,#336,#337) ;
#17=CARTESIAN_POINT(' ',(0.,0.,0.)) ;
#32=CARTESIAN_POINT('Axis2P3D Location',(2.9,2.9,16.5)) ;
#37=CARTESIAN_POINT('Line Origine',(4.4408920985E-16,2.9,16.5)) ;
#41=CARTESIAN_POINT('Vertex',(4.4408920985E-16,2.9,16.5)) ;
#43=CARTESIAN_POINT('Vertex',(4.4408920985E-16,2.9,17.)) ;
#46=CARTESIAN_POINT('Axis2P3D Location',(2.9,2.9,16.5)) ;
#50=CARTESIAN_POINT('Vertex',(5.8,2.9,16.5)) ;
#53=CARTESIAN_POINT('Line Origine',(5.8,2.9,16.5)) ;
#57=CARTESIAN_POINT('Vertex',(5.8,2.9,17.)) ;
#60=CARTESIAN_POINT('Axis2P3D Location',(2.9,2.9,17.)) ;
#64=CARTESIAN_POINT('Vertex',(2.9,0.,17.)) ;
#67=CARTESIAN_POINT('Axis2P3D Location',(2.9,2.9,17.)) ;
#88=CARTESIAN_POINT('Axis2P3D Location',(2.9,2.9,16.5)) ;
#93=CARTESIAN_POINT('Axis2P3D Location',(2.9,2.9,17.)) ;
#97=CARTESIAN_POINT('Vertex',(2.90000000001,5.8,17.)) ;
#100=CARTESIAN_POINT('Axis2P3D Location',(2.9,2.9,17.)) ;
#114=CARTESIAN_POINT('Axis2P3D Location',(2.9,-2.6645352591E-15,16.5)) ;
#124=CARTESIAN_POINT('Control Point',(4.9,2.90000000037,16.5)) ;
#125=CARTESIAN_POINT('Control Point',(4.9,2.69216762329,16.5)) ;
#126=CARTESIAN_POINT('Control Point',(4.87300356155,2.48433607951,16.5)) ;
#127=CARTESIAN_POINT('Control Point',(4.81898269104,2.2811087606,16.5)) ;
#128=CARTESIAN_POINT('Control Point',(4.65945030595,1.89349655512,16.5)) ;
#129=CARTESIAN_POINT('Control Point',(4.40618699249,1.55950744334,16.5)) ;
#130=CARTESIAN_POINT('Control Point',(4.25838411027,1.40992834313,16.5)) ;
#131=CARTESIAN_POINT('Control Point',(3.92744020886,1.15269316366,16.5)) ;
#132=CARTESIAN_POINT('Control Point',(3.54176352277,0.988545284406,16.5)) ;
#133=CARTESIAN_POINT('Control Point',(3.33919599535,0.932100659957,16.5)) ;
#134=CARTESIAN_POINT('Control Point',(2.92420394531,0.873148072167,16.5)) ;
#135=CARTESIAN_POINT('Control Point',(2.50792574789,0.922173583528,16.5)) ;
#136=CARTESIAN_POINT('Control Point',(2.30406786171,0.973763821696,16.5)) ;
#137=CARTESIAN_POINT('Control Point',(1.91457826462,1.12865628132,16.5)) ;
#138=CARTESIAN_POINT('Control Point',(1.5775886836,1.37791332091,16.5)) ;
#139=CARTESIAN_POINT('Control Point',(1.42625533874,1.52391947875,16.5)) ;
#140=CARTESIAN_POINT('Control Point',(1.16508637761,1.85176840082,16.5)) ;
#141=CARTESIAN_POINT('Control Point',(0.996344683939,2.23545788755,16.5)) ;
#142=CARTESIAN_POINT('Control Point',(0.937485485195,2.43733676658,16.5)) ;
#143=CARTESIAN_POINT('Control Point',(0.904064834437,2.65398621738,16.5)) ;
#144=CARTESIAN_POINT('Control Point',(0.900171119928,2.87134084754,16.5)) ;
#145=CARTESIAN_POINT('Control Point',(0.900057035887,2.88089425761,16.5)) ;
#146=CARTESIAN_POINT('Control Point',(0.9,2.89044712899,16.5)) ;
#147=CARTESIAN_POINT('Control Point',(0.9,2.90000000037,16.5)) ;
#148=CARTESIAN_POINT('Vertex',(4.9,2.9,16.5)) ;
#150=CARTESIAN_POINT('Vertex',(0.9,2.90000000037,16.5)) ;
#154=CARTESIAN_POINT('Control Point',(0.9,2.90000000037,16.5)) ;
#155=CARTESIAN_POINT('Control Point',(0.9,3.10783237944,16.5)) ;
#156=CARTESIAN_POINT('Control Point',(0.926996438973,3.3156639252,16.5)) ;
#157=CARTESIAN_POINT('Control Point',(0.981017308784,3.51889123669,16.5)) ;
#158=CARTESIAN_POINT('Control Point',(1.14054969624,3.90650344773,16.5)) ;
#159=CARTESIAN_POINT('Control Point',(1.39381301461,4.24049256343,16.5)) ;
#160=CARTESIAN_POINT('Control Point',(1.54161588528,4.39007165284,16.5)) ;
#161=CARTESIAN_POINT('Control Point',(1.87255978787,4.6473068344,16.5)) ;
#162=CARTESIAN_POINT('Control Point',(2.2582364757,4.81145471476,16.5)) ;
#163=CARTESIAN_POINT('Control Point',(2.46080400835,4.86789934145,16.5)) ;
#164=CARTESIAN_POINT('Control Point',(2.87579605162,4.92685192766,16.5)) ;
#165=CARTESIAN_POINT('Control Point',(3.2920742422,4.87782641825,16.5)) ;
#166=CARTESIAN_POINT('Control Point',(3.49593214557,4.82623617695,16.5)) ;
#167=CARTESIAN_POINT('Control Point',(3.88542173085,4.67134372098,16.5)) ;
#168=CARTESIAN_POINT('Control Point',(4.22241130317,4.42208669048,16.5)) ;
#169=CARTESIAN_POINT('Control Point',(4.37374466966,4.27608051413,16.5)) ;
#170=CARTESIAN_POINT('Control Point',(4.63491362314,3.94823159978,16.5)) ;
#171=CARTESIAN_POINT('Control Point',(4.80365531392,3.56454212342,16.5)) ;
#172=CARTESIAN_POINT('Control Point',(4.86251451528,3.36266322823,16.5)) ;
#173=CARTESIAN_POINT('Control Point',(4.89593516535,3.14601377981,16.5)) ;
#174=CARTESIAN_POINT('Control Point',(4.89982888011,2.92865915288,16.5)) ;
#175=CARTESIAN_POINT('Control Point',(4.89994296411,2.91910574347,16.5)) ;
#176=CARTESIAN_POINT('Control Point',(4.9,2.90955287192,16.5)) ;
#177=CARTESIAN_POINT('Control Point',(4.9,2.90000000037,16.5)) ;
#185=CARTESIAN_POINT('Axis2P3D Location',(2.9,2.9,8.84)) ;
#190=CARTESIAN_POINT('Axis2P3D Location',(2.9,2.9,8.84)) ;
#194=CARTESIAN_POINT('Vertex',(2.9,2.9,17.5)) ;
#197=CARTESIAN_POINT('Axis2P3D Location',(2.9,2.9,8.84)) ;
#209=CARTESIAN_POINT('Axis2P3D Location',(2.9,2.9,8.84)) ;
#214=CARTESIAN_POINT('Axis2P3D Location',(2.9,2.9,8.84)) ;
#226=CARTESIAN_POINT('Axis2P3D Location',(2.9,2.9,8.84)) ;
#245=CARTESIAN_POINT('Axis2P3D Location',(2.9,2.9,16.5)) ;
#250=CARTESIAN_POINT('Line Origine',(0.9,2.9,16.5)) ;
#254=CARTESIAN_POINT('Vertex',(0.9,2.9,2.)) ;
#257=CARTESIAN_POINT('Axis2P3D Location',(2.9,2.9,2.)) ;
#261=CARTESIAN_POINT('Vertex',(4.9,2.9,2.)) ;
#264=CARTESIAN_POINT('Line Origine',(4.9,2.9,16.5)) ;
#277=CARTESIAN_POINT('Axis2P3D Location',(2.9,2.9,2.)) ;
#290=CARTESIAN_POINT('Axis2P3D Location',(2.9,2.9,0.)) ;
#295=CARTESIAN_POINT('Line Origine',(980584.374583,2.89999999976,4902899.37868)) ;
#299=CARTESIAN_POINT('Vertex',(4.5,2.9,0.)) ;
#302=CARTESIAN_POINT('Line Origine',(-980578.574583,2.90000000012,4902899.37868)) ;
#306=CARTESIAN_POINT('Vertex',(1.30000000001,2.9,-7.27592837644E-11)) ;
#309=CARTESIAN_POINT('Axis2P3D Location',(2.9,2.9,0.)) ;
#322=CARTESIAN_POINT('Axis2P3D Location',(2.9,2.9,0.)) ;
#335=CARTESIAN_POINT('Axis2P3D Location',(2.9,0.9,0.)) ;
#33=DIRECTION('Axis2P3D Direction',(0.,0.,-1.)) ;
#34=DIRECTION('Axis2P3D XDirection',(-1.,-2.64687485605E-28,-0.)) ;
#38=DIRECTION('Vector Direction',(0.,0.,-1.)) ;
#47=DIRECTION('Axis2P3D Direction',(0.,0.,-1.)) ;
#54=DIRECTION('Vector Direction',(0.,0.,-1.)) ;
#61=DIRECTION('Axis2P3D Direction',(0.,0.,-1.)) ;
#68=DIRECTION('Axis2P3D Direction',(0.,0.,-1.)) ;
#89=DIRECTION('Axis2P3D Direction',(0.,0.,-1.)) ;
#94=DIRECTION('Axis2P3D Direction',(0.,0.,-1.)) ;
#101=DIRECTION('Axis2P3D Direction',(0.,0.,-1.)) ;
#115=DIRECTION('Axis2P3D Direction',(0.,0.,1.)) ;
#116=DIRECTION('Axis2P3D XDirection',(1.,0.,0.)) ;
#186=DIRECTION('Axis2P3D Direction',(0.,0.,1.)) ;
#187=DIRECTION('Axis2P3D XDirection',(-1.02561018441E-16,-1.,0.)) ;
#191=DIRECTION('Axis2P3D Direction',(-1.63793358398E-16,-1.,0.)) ;
#198=DIRECTION('Axis2P3D Direction',(-1.,1.02561018441E-16,0.)) ;
#210=DIRECTION('Axis2P3D Direction',(0.,-0.,1.)) ;
#211=DIRECTION('Axis2P3D XDirection',(0.,1.,0.)) ;
#215=DIRECTION('Axis2P3D Direction',(6.12323399574E-17,1.,-0.)) ;
#227=DIRECTION('Axis2P3D Direction',(1.,0.,0.)) ;
#246=DIRECTION('Axis2P3D Direction',(0.,0.,-1.)) ;
#247=DIRECTION('Axis2P3D XDirection',(-1.,-2.64687485605E-28,-0.)) ;
#251=DIRECTION('Vector Direction',(0.,0.,-1.)) ;
#258=DIRECTION('Axis2P3D Direction',(0.,0.,-1.)) ;
#265=DIRECTION('Vector Direction',(0.,0.,-1.)) ;
#278=DIRECTION('Axis2P3D Direction',(0.,0.,-1.)) ;
#291=DIRECTION('Axis2P3D Direction',(0.,0.,1.)) ;
#292=DIRECTION('Axis2P3D XDirection',(1.,0.,0.)) ;
#296=DIRECTION('Vector Direction',(0.196116134917,-4.80346037412E-17,0.980580675735)) ;
#303=DIRECTION('Vector Direction',(-0.196116134917,2.40173018706E-17,0.980580675735)) ;
#310=DIRECTION('Axis2P3D Direction',(0.,0.,1.)) ;
#323=DIRECTION('Axis2P3D Direction',(0.,0.,1.)) ;
#336=DIRECTION('Axis2P3D Direction',(0.,0.,1.)) ;
#337=DIRECTION('Axis2P3D XDirection',(1.,0.,0.)) ;
#30=PRESENTATION_LAYER_ASSIGNMENT('1',' ',(#21)) ;
#8=PRODUCT_RELATED_PRODUCT_CATEGORY('part',$,(#5)) ;
#7=PRODUCT_CATEGORY('part','specification') ;
#29=STYLED_ITEM(' ',(#28),#21) ;
#28=PRESENTATION_STYLE_ASSIGNMENT((#27)) ;
#86=PRESENTATION_STYLE_ASSIGNMENT((#85)) ;
#27=SURFACE_STYLE_USAGE(.BOTH.,#26) ;
#85=SURFACE_STYLE_USAGE(.BOTH.,#84) ;
#26=SURFACE_SIDE_STYLE(' ',(#25)) ;
#84=SURFACE_SIDE_STYLE(' ',(#83)) ;
#25=SURFACE_STYLE_FILL_AREA(#24) ;
#83=SURFACE_STYLE_FILL_AREA(#82) ;
#24=FILL_AREA_STYLE(' ',(#23)) ;
#82=FILL_AREA_STYLE(' ',(#81)) ;
#23=FILL_AREA_STYLE_COLOUR(' ',#22) ;
#81=FILL_AREA_STYLE_COLOUR(' ',#80) ;
#39=VECTOR('Line Direction',#38,1.) ;
#55=VECTOR('Line Direction',#54,1.) ;
#252=VECTOR('Line Direction',#251,1.) ;
#266=VECTOR('Line Direction',#265,1.) ;
#297=VECTOR('Line Direction',#296,1.) ;
#304=VECTOR('Line Direction',#303,1.) ;
#15=UNCERTAINTY_MEASURE_WITH_UNIT(LENGTH_MEASURE(0.005),#12,'distance_accuracy_value','CONFUSED CURVE UNCERTAINTY') ;
#347=SHAPE_REPRESENTATION_RELATIONSHIP(' ',' ',#19,#346) ;
#73=ORIENTED_EDGE('',*,*,#45,.F.) ;
#74=ORIENTED_EDGE('',*,*,#52,.F.) ;
#75=ORIENTED_EDGE('',*,*,#59,.F.) ;
#76=ORIENTED_EDGE('',*,*,#66,.F.) ;
#77=ORIENTED_EDGE('',*,*,#71,.F.) ;
#106=ORIENTED_EDGE('',*,*,#59,.T.) ;
#107=ORIENTED_EDGE('',*,*,#92,.F.) ;
#108=ORIENTED_EDGE('',*,*,#45,.T.) ;
#109=ORIENTED_EDGE('',*,*,#99,.T.) ;
#110=ORIENTED_EDGE('',*,*,#104,.T.) ;
#120=ORIENTED_EDGE('',*,*,#92,.T.) ;
#121=ORIENTED_EDGE('',*,*,#52,.T.) ;
#180=ORIENTED_EDGE('',*,*,#152,.F.) ;
#181=ORIENTED_EDGE('',*,*,#178,.F.) ;
#203=ORIENTED_EDGE('',*,*,#196,.T.) ;
#204=ORIENTED_EDGE('',*,*,#201,.T.) ;
#205=ORIENTED_EDGE('',*,*,#66,.T.) ;
#220=ORIENTED_EDGE('',*,*,#218,.F.) ;
#221=ORIENTED_EDGE('',*,*,#71,.T.) ;
#222=ORIENTED_EDGE('',*,*,#201,.F.) ;
#232=ORIENTED_EDGE('',*,*,#218,.T.) ;
#233=ORIENTED_EDGE('',*,*,#230,.T.) ;
#234=ORIENTED_EDGE('',*,*,#99,.F.) ;
#239=ORIENTED_EDGE('',*,*,#196,.F.) ;
#240=ORIENTED_EDGE('',*,*,#104,.F.) ;
#241=ORIENTED_EDGE('',*,*,#230,.F.) ;
#270=ORIENTED_EDGE('',*,*,#256,.F.) ;
#271=ORIENTED_EDGE('',*,*,#263,.T.) ;
#272=ORIENTED_EDGE('',*,*,#268,.F.) ;
#273=ORIENTED_EDGE('',*,*,#152,.T.) ;
#283=ORIENTED_EDGE('',*,*,#268,.T.) ;
#284=ORIENTED_EDGE('',*,*,#281,.T.) ;
#285=ORIENTED_EDGE('',*,*,#256,.T.) ;
#286=ORIENTED_EDGE('',*,*,#178,.T.) ;
#315=ORIENTED_EDGE('',*,*,#301,.F.) ;
#316=ORIENTED_EDGE('',*,*,#263,.F.) ;
#317=ORIENTED_EDGE('',*,*,#308,.F.) ;
#318=ORIENTED_EDGE('',*,*,#313,.F.) ;
#328=ORIENTED_EDGE('',*,*,#308,.T.) ;
#329=ORIENTED_EDGE('',*,*,#281,.F.) ;
#330=ORIENTED_EDGE('',*,*,#301,.T.) ;
#331=ORIENTED_EDGE('',*,*,#326,.F.) ;
#341=ORIENTED_EDGE('',*,*,#313,.T.) ;
#342=ORIENTED_EDGE('',*,*,#326,.T.) ;
#182=FACE_BOUND('',#179,.T.) ;
#31=CLOSED_SHELL('Closed Shell',(#79,#112,#183,#207,#224,#236,#243,#275,#288,#320,#333,#344)) ;
#346=ADVANCED_BREP_SHAPE_REPRESENTATION('NONE',(#21),#16) ;
#79=ADVANCED_FACE('CABTITE BP 4MM PA',(#78),#36,.T.) ;
#112=ADVANCED_FACE('CABTITE BP 4MM PA',(#111),#36,.T.) ;
#183=ADVANCED_FACE('CABTITE BP 4MM PA',(#122,#182),#118,.F.) ;
#207=ADVANCED_FACE('CABTITE BP 4MM PA',(#206),#189,.T.) ;
#224=ADVANCED_FACE('CABTITE BP 4MM PA',(#223),#213,.T.) ;
#236=ADVANCED_FACE('CABTITE BP 4MM PA',(#235),#213,.T.) ;
#243=ADVANCED_FACE('CABTITE BP 4MM PA',(#242),#213,.T.) ;
#275=ADVANCED_FACE('CABTITE BP 4MM PA',(#274),#249,.T.) ;
#288=ADVANCED_FACE('CABTITE BP 4MM PA',(#287),#249,.T.) ;
#320=ADVANCED_FACE('CABTITE BP 4MM PA',(#319),#294,.T.) ;
#333=ADVANCED_FACE('CABTITE BP 4MM PA',(#332),#294,.T.) ;
#344=ADVANCED_FACE('CABTITE BP 4MM PA',(#343),#339,.F.) ;
#4=APPLICATION_PROTOCOL_DEFINITION('international standard','automotive_design',2001,#1) ;
#123=B_SPLINE_CURVE_WITH_KNOTS('',5,(#124,#125,#126,#127,#128,#129,#130,#131,#132,#133,#134,#135,#136,#137,#138,#139,#140,#141,#142,#143,#144,#145,#146,#147),.UNSPECIFIED.,.F.,.U.,(6,3,3,3,3,3,3,6),(0.,1.47375273522,2.9475054671,4.42125819974,5.89501097976,7.36876380363,8.84251927991,8.91025930448),.UNSPECIFIED.) ;
#153=B_SPLINE_CURVE_WITH_KNOTS('',5,(#154,#155,#156,#157,#158,#159,#160,#161,#162,#163,#164,#165,#166,#167,#168,#169,#170,#171,#172,#173,#174,#175,#176,#177),.UNSPECIFIED.,.F.,.U.,(6,3,3,3,3,3,3,6),(0.,1.47375275616,2.94750552277,4.42125824909,5.89501100089,7.3687637812,8.84251924051,8.91025926655),.UNSPECIFIED.) ;
#21=MANIFOLD_SOLID_BREP('CABTITE BP 4MM PA',#31) ;
#49=CIRCLE('generated circle',#48,2.9) ;
#63=CIRCLE('generated circle',#62,2.9) ;
#70=CIRCLE('generated circle',#69,2.9) ;
#91=CIRCLE('generated circle',#90,2.9) ;
#96=CIRCLE('generated circle',#95,2.9) ;
#103=CIRCLE('generated circle',#102,2.9) ;
#193=CIRCLE('generated circle',#192,8.66) ;
#200=CIRCLE('generated circle',#199,8.66) ;
#217=CIRCLE('generated circle',#216,8.66) ;
#229=CIRCLE('generated circle',#228,8.66) ;
#260=CIRCLE('generated circle',#259,2.) ;
#280=CIRCLE('generated circle',#279,2.) ;
#312=CIRCLE('generated circle',#311,1.6) ;
#325=CIRCLE('generated circle',#324,1.6) ;
#22=COLOUR_RGB('Colour',0.823529411765,0.823529411765,1.) ;
#80=COLOUR_RGB('Colour',0.964705882353,0.937254901961,0.894117647059) ;
#294=CONICAL_SURFACE('Cone',#293,1.6,0.197395559624) ;
#87=OVER_RIDING_STYLED_ITEM(' ',(#86),#79,#29) ;
#113=OVER_RIDING_STYLED_ITEM(' ',(#86),#112,#29) ;
#184=OVER_RIDING_STYLED_ITEM(' ',(#86),#183,#29) ;
#208=OVER_RIDING_STYLED_ITEM(' ',(#86),#207,#29) ;
#225=OVER_RIDING_STYLED_ITEM(' ',(#86),#224,#29) ;
#237=OVER_RIDING_STYLED_ITEM(' ',(#86),#236,#29) ;
#244=OVER_RIDING_STYLED_ITEM(' ',(#86),#243,#29) ;
#276=OVER_RIDING_STYLED_ITEM(' ',(#86),#275,#29) ;
#289=OVER_RIDING_STYLED_ITEM(' ',(#86),#288,#29) ;
#321=OVER_RIDING_STYLED_ITEM(' ',(#86),#320,#29) ;
#334=OVER_RIDING_STYLED_ITEM(' ',(#86),#333,#29) ;
#345=OVER_RIDING_STYLED_ITEM(' ',(#86),#344,#29) ;
#36=CYLINDRICAL_SURFACE('generated cylinder',#35,2.9) ;
#249=CYLINDRICAL_SURFACE('generated cylinder',#248,2.) ;
#45=EDGE_CURVE('',#42,#44,#40,.F.) ;
#52=EDGE_CURVE('',#51,#42,#49,.T.) ;
#59=EDGE_CURVE('',#58,#51,#56,.T.) ;
#66=EDGE_CURVE('',#65,#58,#63,.F.) ;
#71=EDGE_CURVE('',#44,#65,#70,.F.) ;
#92=EDGE_CURVE('',#42,#51,#91,.T.) ;
#99=EDGE_CURVE('',#44,#98,#96,.T.) ;
#104=EDGE_CURVE('',#98,#58,#103,.T.) ;
#152=EDGE_CURVE('',#149,#151,#123,.T.) ;
#178=EDGE_CURVE('',#151,#149,#153,.T.) ;
#196=EDGE_CURVE('',#58,#195,#193,.T.) ;
#201=EDGE_CURVE('',#195,#65,#200,.F.) ;
#218=EDGE_CURVE('',#44,#195,#217,.T.) ;
#230=EDGE_CURVE('',#195,#98,#229,.F.) ;
#256=EDGE_CURVE('',#255,#151,#253,.F.) ;
#263=EDGE_CURVE('',#255,#262,#260,.F.) ;
#268=EDGE_CURVE('',#149,#262,#267,.T.) ;
#281=EDGE_CURVE('',#262,#255,#280,.F.) ;
#301=EDGE_CURVE('',#262,#300,#298,.F.) ;
#308=EDGE_CURVE('',#307,#255,#305,.T.) ;
#313=EDGE_CURVE('',#300,#307,#312,.F.) ;
#326=EDGE_CURVE('',#307,#300,#325,.F.) ;
#72=EDGE_LOOP('',(#73,#74,#75,#76,#77)) ;
#105=EDGE_LOOP('',(#106,#107,#108,#109,#110)) ;
#119=EDGE_LOOP('',(#120,#121)) ;
#179=EDGE_LOOP('',(#180,#181)) ;
#202=EDGE_LOOP('',(#203,#204,#205)) ;
#219=EDGE_LOOP('',(#220,#221,#222)) ;
#231=EDGE_LOOP('',(#232,#233,#234)) ;
#238=EDGE_LOOP('',(#239,#240,#241)) ;
#269=EDGE_LOOP('',(#270,#271,#272,#273)) ;
#282=EDGE_LOOP('',(#283,#284,#285,#286)) ;
#314=EDGE_LOOP('',(#315,#316,#317,#318)) ;
#327=EDGE_LOOP('',(#328,#329,#330,#331)) ;
#340=EDGE_LOOP('',(#341,#342)) ;
#78=FACE_OUTER_BOUND('',#72,.T.) ;
#111=FACE_OUTER_BOUND('',#105,.T.) ;
#122=FACE_OUTER_BOUND('',#119,.T.) ;
#206=FACE_OUTER_BOUND('',#202,.T.) ;
#223=FACE_OUTER_BOUND('',#219,.T.) ;
#235=FACE_OUTER_BOUND('',#231,.T.) ;
#242=FACE_OUTER_BOUND('',#238,.T.) ;
#274=FACE_OUTER_BOUND('',#269,.T.) ;
#287=FACE_OUTER_BOUND('',#282,.T.) ;
#319=FACE_OUTER_BOUND('',#314,.T.) ;
#332=FACE_OUTER_BOUND('',#327,.T.) ;
#343=FACE_OUTER_BOUND('',#340,.T.) ;
#40=LINE('Line',#37,#39) ;
#56=LINE('Line',#53,#55) ;
#253=LINE('Line',#250,#252) ;
#267=LINE('Line',#264,#266) ;
#298=LINE('Line',#295,#297) ;
#305=LINE('Line',#302,#304) ;
#118=PLANE('',#117) ;
#339=PLANE('',#338) ;
#9=PRODUCT_CATEGORY_RELATIONSHIP(' ',' ',#7,#8) ;
#6=PRODUCT_DEFINITION_FORMATION_WITH_SPECIFIED_SOURCE(' ',' ',#5,.NOT_KNOWN.) ;
#20=SHAPE_DEFINITION_REPRESENTATION(#11,#19) ;
#189=SPHERICAL_SURFACE('',#188,8.66) ;
#213=SPHERICAL_SURFACE('',#212,8.66) ;
#42=VERTEX_POINT('',#41) ;
#44=VERTEX_POINT('',#43) ;
#51=VERTEX_POINT('',#50) ;
#58=VERTEX_POINT('',#57) ;
#65=VERTEX_POINT('',#64) ;
#98=VERTEX_POINT('',#97) ;
#149=VERTEX_POINT('',#148) ;
#151=VERTEX_POINT('',#150) ;
#195=VERTEX_POINT('',#194) ;
#255=VERTEX_POINT('',#254) ;
#262=VERTEX_POINT('',#261) ;
#300=VERTEX_POINT('',#299) ;
#307=VERTEX_POINT('',#306) ;
#12=(LENGTH_UNIT()NAMED_UNIT(*)SI_UNIT(.MILLI.,.METRE.)) ;
#13=(NAMED_UNIT(*)PLANE_ANGLE_UNIT()SI_UNIT($,.RADIAN.)) ;
#14=(NAMED_UNIT(*)SI_UNIT($,.STERADIAN.)SOLID_ANGLE_UNIT()) ;
#16=(GEOMETRIC_REPRESENTATION_CONTEXT(3)GLOBAL_UNCERTAINTY_ASSIGNED_CONTEXT((#15))GLOBAL_UNIT_ASSIGNED_CONTEXT((#12,#13,#14))REPRESENTATION_CONTEXT(' ',' ')) ;
ENDSEC;
END-ISO-10303-21;
