ISO-10303-21;
HEADER;
FILE_DESCRIPTION(('CATIA V5R24 STEP','CAx-IF Rec.Pracs.--- Model Styling and Organization---1.2---2011-12-15'),'2;1');

FILE_NAME ('D1446694_0_1016870000_1016870000.stp','2017-03-28T13:18:09+00:00',('none'),('Weidmueller'),'CATIA Version 5-6 Release 2014 SP4 HF52','CATIA V5 STEP AP214','none');

FILE_SCHEMA(('AUTOMOTIVE_DESIGN { 1 0 10303 214 1 1 1 1 }'));

ENDSEC;
DATA;
#5=PRODUCT('v5-standard_part','','',(#2)) ;
#2=PRODUCT_CONTEXT(' ',#1,'mechanical') ;
#1=APPLICATION_CONTEXT('automotive design') ;
#10=PRODUCT_DEFINITION('',' ',#6,#3) ;
#3=PRODUCT_DEFINITION_CONTEXT('part definition',#1,' ') ;
#11=PRODUCT_DEFINITION_SHAPE(' ',' ',#10) ;
#524=MECHANICAL_DESIGN_GEOMETRIC_PRESENTATION_REPRESENTATION(' ',(#46),#16) ;
#19=SHAPE_REPRESENTATION(' ',(#18),#16) ;
#18=AXIS2_PLACEMENT_3D(' ',#17,$,$) ;
#24=AXIS2_PLACEMENT_3D('Plane Axis2P3D',#21,#22,#23) ;
#31=AXIS2_PLACEMENT_3D('Plane Axis2P3D',#28,#29,#30) ;
#36=AXIS2_PLACEMENT_3D('Plane Axis2P3D',#33,#34,#35) ;
#52=AXIS2_PLACEMENT_3D('Cylinder Axis2P3D',#49,#50,#51) ;
#56=AXIS2_PLACEMENT_3D('Circle Axis2P3D',#54,#55,$) ;
#72=AXIS2_PLACEMENT_3D('Circle Axis2P3D',#70,#71,$) ;
#91=AXIS2_PLACEMENT_3D('Circle Axis2P3D',#89,#90,$) ;
#96=AXIS2_PLACEMENT_3D('Circle Axis2P3D',#94,#95,$) ;
#109=AXIS2_PLACEMENT_3D('Plane Axis2P3D',#106,#107,#108) ;
#149=AXIS2_PLACEMENT_3D('Plane Axis2P3D',#146,#147,#148) ;
#180=AXIS2_PLACEMENT_3D('Plane Axis2P3D',#177,#178,#179) ;
#211=AXIS2_PLACEMENT_3D('Plane Axis2P3D',#208,#209,#210) ;
#233=AXIS2_PLACEMENT_3D('Plane Axis2P3D',#230,#231,#232) ;
#243=AXIS2_PLACEMENT_3D('Circle Axis2P3D',#241,#242,$) ;
#252=AXIS2_PLACEMENT_3D('Circle Axis2P3D',#250,#251,$) ;
#265=AXIS2_PLACEMENT_3D('Circle Axis2P3D',#263,#264,$) ;
#274=AXIS2_PLACEMENT_3D('Circle Axis2P3D',#272,#273,$) ;
#283=AXIS2_PLACEMENT_3D('Circle Axis2P3D',#281,#282,$) ;
#292=AXIS2_PLACEMENT_3D('Circle Axis2P3D',#290,#291,$) ;
#301=AXIS2_PLACEMENT_3D('Circle Axis2P3D',#299,#300,$) ;
#310=AXIS2_PLACEMENT_3D('Circle Axis2P3D',#308,#309,$) ;
#321=AXIS2_PLACEMENT_3D('Plane Axis2P3D',#318,#319,#320) ;
#331=AXIS2_PLACEMENT_3D('Circle Axis2P3D',#329,#330,$) ;
#340=AXIS2_PLACEMENT_3D('Circle Axis2P3D',#338,#339,$) ;
#353=AXIS2_PLACEMENT_3D('Circle Axis2P3D',#351,#352,$) ;
#362=AXIS2_PLACEMENT_3D('Circle Axis2P3D',#360,#361,$) ;
#371=AXIS2_PLACEMENT_3D('Circle Axis2P3D',#369,#370,$) ;
#380=AXIS2_PLACEMENT_3D('Circle Axis2P3D',#378,#379,$) ;
#389=AXIS2_PLACEMENT_3D('Circle Axis2P3D',#387,#388,$) ;
#398=AXIS2_PLACEMENT_3D('Circle Axis2P3D',#396,#397,$) ;
#409=AXIS2_PLACEMENT_3D('Cylinder Axis2P3D',#406,#407,#408) ;
#438=AXIS2_PLACEMENT_3D('Cylinder Axis2P3D',#435,#436,#437) ;
#467=AXIS2_PLACEMENT_3D('Cylinder Axis2P3D',#464,#465,#466) ;
#496=AXIS2_PLACEMENT_3D('Cylinder Axis2P3D',#493,#494,#495) ;
#17=CARTESIAN_POINT(' ',(0.,0.,0.)) ;
#21=CARTESIAN_POINT('Axis2P3D Location',(0.,0.,0.)) ;
#28=CARTESIAN_POINT('Axis2P3D Location',(0.,0.,0.)) ;
#33=CARTESIAN_POINT('Axis2P3D Location',(0.,0.,0.)) ;
#49=CARTESIAN_POINT('Axis2P3D Location',(14.,12.5,1.33999999993)) ;
#54=CARTESIAN_POINT('Axis2P3D Location',(14.,12.5,0.)) ;
#58=CARTESIAN_POINT('Vertex',(8.7,12.5,0.)) ;
#60=CARTESIAN_POINT('Vertex',(19.3,12.5,0.)) ;
#63=CARTESIAN_POINT('Line Origine',(8.7,12.5,1.33999999993)) ;
#67=CARTESIAN_POINT('Vertex',(8.7,12.5,4.)) ;
#70=CARTESIAN_POINT('Axis2P3D Location',(14.,12.5,4.)) ;
#74=CARTESIAN_POINT('Vertex',(19.3,12.5,4.)) ;
#77=CARTESIAN_POINT('Line Origine',(19.3,12.5,1.33999999993)) ;
#89=CARTESIAN_POINT('Axis2P3D Location',(14.,12.5,0.)) ;
#94=CARTESIAN_POINT('Axis2P3D Location',(14.,12.5,4.)) ;
#106=CARTESIAN_POINT('Axis2P3D Location',(0.,25.,0.)) ;
#111=CARTESIAN_POINT('Line Origine',(0.,25.,2.)) ;
#115=CARTESIAN_POINT('Vertex',(0.,25.,0.)) ;
#117=CARTESIAN_POINT('Vertex',(0.,25.,4.)) ;
#120=CARTESIAN_POINT('Line Origine',(0.,12.5,0.)) ;
#124=CARTESIAN_POINT('Vertex',(0.,1.7763568394E-015,0.)) ;
#127=CARTESIAN_POINT('Line Origine',(0.,0.,2.)) ;
#131=CARTESIAN_POINT('Vertex',(0.,1.7763568394E-015,4.)) ;
#134=CARTESIAN_POINT('Line Origine',(0.,12.5,4.)) ;
#146=CARTESIAN_POINT('Axis2P3D Location',(163.2,0.,0.)) ;
#151=CARTESIAN_POINT('Line Origine',(81.6,0.,0.)) ;
#155=CARTESIAN_POINT('Vertex',(163.2,0.,0.)) ;
#158=CARTESIAN_POINT('Line Origine',(163.2,0.,2.)) ;
#162=CARTESIAN_POINT('Vertex',(163.2,0.,4.)) ;
#165=CARTESIAN_POINT('Line Origine',(81.6,0.,4.)) ;
#177=CARTESIAN_POINT('Axis2P3D Location',(163.2,-1.95399252334E-014,0.)) ;
#182=CARTESIAN_POINT('Line Origine',(163.2,12.5,0.)) ;
#186=CARTESIAN_POINT('Vertex',(163.2,25.,0.)) ;
#189=CARTESIAN_POINT('Line Origine',(163.2,25.,2.)) ;
#193=CARTESIAN_POINT('Vertex',(163.2,25.,4.)) ;
#196=CARTESIAN_POINT('Line Origine',(163.2,12.5,4.)) ;
#208=CARTESIAN_POINT('Axis2P3D Location',(0.,25.,0.)) ;
#213=CARTESIAN_POINT('Line Origine',(81.6,25.,0.)) ;
#218=CARTESIAN_POINT('Line Origine',(81.6,25.,4.)) ;
#230=CARTESIAN_POINT('Axis2P3D Location',(81.6,12.5,0.)) ;
#241=CARTESIAN_POINT('Axis2P3D Location',(47.8,12.5,0.)) ;
#245=CARTESIAN_POINT('Vertex',(53.1,12.5,0.)) ;
#247=CARTESIAN_POINT('Vertex',(42.5,12.5,0.)) ;
#250=CARTESIAN_POINT('Axis2P3D Location',(47.8,12.5,0.)) ;
#263=CARTESIAN_POINT('Axis2P3D Location',(81.6,12.5,0.)) ;
#267=CARTESIAN_POINT('Vertex',(86.9,12.5,0.)) ;
#269=CARTESIAN_POINT('Vertex',(76.3,12.5,0.)) ;
#272=CARTESIAN_POINT('Axis2P3D Location',(81.6,12.5,0.)) ;
#281=CARTESIAN_POINT('Axis2P3D Location',(115.4,12.5,0.)) ;
#285=CARTESIAN_POINT('Vertex',(120.7,12.5,0.)) ;
#287=CARTESIAN_POINT('Vertex',(110.1,12.5,0.)) ;
#290=CARTESIAN_POINT('Axis2P3D Location',(115.4,12.5,0.)) ;
#299=CARTESIAN_POINT('Axis2P3D Location',(149.2,12.5,0.)) ;
#303=CARTESIAN_POINT('Vertex',(154.5,12.5,0.)) ;
#305=CARTESIAN_POINT('Vertex',(143.9,12.5,0.)) ;
#308=CARTESIAN_POINT('Axis2P3D Location',(149.2,12.5,0.)) ;
#318=CARTESIAN_POINT('Axis2P3D Location',(81.6,12.5,4.)) ;
#329=CARTESIAN_POINT('Axis2P3D Location',(47.8,12.5,4.)) ;
#333=CARTESIAN_POINT('Vertex',(53.1,12.5,4.)) ;
#335=CARTESIAN_POINT('Vertex',(42.5,12.5,4.)) ;
#338=CARTESIAN_POINT('Axis2P3D Location',(47.8,12.5,4.)) ;
#351=CARTESIAN_POINT('Axis2P3D Location',(81.6,12.5,4.)) ;
#355=CARTESIAN_POINT('Vertex',(86.9,12.5,4.)) ;
#357=CARTESIAN_POINT('Vertex',(76.3,12.5,4.)) ;
#360=CARTESIAN_POINT('Axis2P3D Location',(81.6,12.5,4.)) ;
#369=CARTESIAN_POINT('Axis2P3D Location',(115.4,12.5,4.)) ;
#373=CARTESIAN_POINT('Vertex',(120.7,12.5,4.)) ;
#375=CARTESIAN_POINT('Vertex',(110.1,12.5,4.)) ;
#378=CARTESIAN_POINT('Axis2P3D Location',(115.4,12.5,4.)) ;
#387=CARTESIAN_POINT('Axis2P3D Location',(149.2,12.5,4.)) ;
#391=CARTESIAN_POINT('Vertex',(154.5,12.5,4.)) ;
#393=CARTESIAN_POINT('Vertex',(143.9,12.5,4.)) ;
#396=CARTESIAN_POINT('Axis2P3D Location',(149.2,12.5,4.)) ;
#406=CARTESIAN_POINT('Axis2P3D Location',(47.8,12.5,1.33999999993)) ;
#411=CARTESIAN_POINT('Line Origine',(53.1,12.5,1.33999999993)) ;
#416=CARTESIAN_POINT('Line Origine',(42.5,12.5,1.33999999993)) ;
#435=CARTESIAN_POINT('Axis2P3D Location',(81.6,12.5,1.33999999993)) ;
#440=CARTESIAN_POINT('Line Origine',(86.9,12.5,1.33999999993)) ;
#445=CARTESIAN_POINT('Line Origine',(76.3,12.5,1.33999999993)) ;
#464=CARTESIAN_POINT('Axis2P3D Location',(115.4,12.5,1.33999999993)) ;
#469=CARTESIAN_POINT('Line Origine',(120.7,12.5,1.33999999993)) ;
#474=CARTESIAN_POINT('Line Origine',(110.1,12.5,1.33999999993)) ;
#493=CARTESIAN_POINT('Axis2P3D Location',(149.2,12.5,1.33999999993)) ;
#498=CARTESIAN_POINT('Line Origine',(154.5,12.5,1.33999999993)) ;
#503=CARTESIAN_POINT('Line Origine',(143.9,12.5,1.33999999993)) ;
#22=DIRECTION('Axis2P3D Direction',(0.,0.,1.)) ;
#23=DIRECTION('Axis2P3D XDirection',(1.,0.,0.)) ;
#29=DIRECTION('Axis2P3D Direction',(1.,0.,0.)) ;
#30=DIRECTION('Axis2P3D XDirection',(0.,1.,0.)) ;
#34=DIRECTION('Axis2P3D Direction',(0.,1.,0.)) ;
#35=DIRECTION('Axis2P3D XDirection',(0.,0.,1.)) ;
#50=DIRECTION('Axis2P3D Direction',(0.,0.,1.)) ;
#51=DIRECTION('Axis2P3D XDirection',(1.,0.,0.)) ;
#55=DIRECTION('Axis2P3D Direction',(0.,0.,1.)) ;
#64=DIRECTION('Vector Direction',(0.,0.,1.)) ;
#71=DIRECTION('Axis2P3D Direction',(0.,0.,1.)) ;
#78=DIRECTION('Vector Direction',(0.,0.,1.)) ;
#90=DIRECTION('Axis2P3D Direction',(0.,0.,1.)) ;
#95=DIRECTION('Axis2P3D Direction',(0.,0.,1.)) ;
#107=DIRECTION('Axis2P3D Direction',(-1.,0.,0.)) ;
#108=DIRECTION('Axis2P3D XDirection',(0.,-1.,0.)) ;
#112=DIRECTION('Vector Direction',(0.,0.,1.)) ;
#121=DIRECTION('Vector Direction',(0.,-1.,0.)) ;
#128=DIRECTION('Vector Direction',(0.,0.,1.)) ;
#135=DIRECTION('Vector Direction',(0.,-1.,0.)) ;
#147=DIRECTION('Axis2P3D Direction',(0.,1.,-0.)) ;
#148=DIRECTION('Axis2P3D XDirection',(-1.,0.,0.)) ;
#152=DIRECTION('Vector Direction',(-1.,0.,0.)) ;
#159=DIRECTION('Vector Direction',(0.,0.,1.)) ;
#166=DIRECTION('Vector Direction',(-1.,0.,0.)) ;
#178=DIRECTION('Axis2P3D Direction',(1.,0.,0.)) ;
#179=DIRECTION('Axis2P3D XDirection',(0.,1.,0.)) ;
#183=DIRECTION('Vector Direction',(0.,1.,0.)) ;
#190=DIRECTION('Vector Direction',(0.,0.,1.)) ;
#197=DIRECTION('Vector Direction',(0.,1.,0.)) ;
#209=DIRECTION('Axis2P3D Direction',(0.,-1.,0.)) ;
#210=DIRECTION('Axis2P3D XDirection',(1.,0.,0.)) ;
#214=DIRECTION('Vector Direction',(1.,0.,0.)) ;
#219=DIRECTION('Vector Direction',(1.,0.,0.)) ;
#231=DIRECTION('Axis2P3D Direction',(0.,0.,1.)) ;
#232=DIRECTION('Axis2P3D XDirection',(1.,0.,0.)) ;
#242=DIRECTION('Axis2P3D Direction',(0.,0.,1.)) ;
#251=DIRECTION('Axis2P3D Direction',(0.,0.,1.)) ;
#264=DIRECTION('Axis2P3D Direction',(0.,0.,1.)) ;
#273=DIRECTION('Axis2P3D Direction',(0.,0.,1.)) ;
#282=DIRECTION('Axis2P3D Direction',(0.,0.,1.)) ;
#291=DIRECTION('Axis2P3D Direction',(0.,0.,1.)) ;
#300=DIRECTION('Axis2P3D Direction',(0.,0.,1.)) ;
#309=DIRECTION('Axis2P3D Direction',(0.,0.,1.)) ;
#319=DIRECTION('Axis2P3D Direction',(0.,0.,1.)) ;
#320=DIRECTION('Axis2P3D XDirection',(1.,0.,0.)) ;
#330=DIRECTION('Axis2P3D Direction',(0.,0.,1.)) ;
#339=DIRECTION('Axis2P3D Direction',(0.,0.,1.)) ;
#352=DIRECTION('Axis2P3D Direction',(0.,0.,1.)) ;
#361=DIRECTION('Axis2P3D Direction',(0.,0.,1.)) ;
#370=DIRECTION('Axis2P3D Direction',(0.,0.,1.)) ;
#379=DIRECTION('Axis2P3D Direction',(0.,0.,1.)) ;
#388=DIRECTION('Axis2P3D Direction',(0.,0.,1.)) ;
#397=DIRECTION('Axis2P3D Direction',(0.,0.,1.)) ;
#407=DIRECTION('Axis2P3D Direction',(0.,0.,1.)) ;
#408=DIRECTION('Axis2P3D XDirection',(1.,0.,0.)) ;
#412=DIRECTION('Vector Direction',(0.,0.,1.)) ;
#417=DIRECTION('Vector Direction',(0.,0.,1.)) ;
#436=DIRECTION('Axis2P3D Direction',(0.,0.,1.)) ;
#437=DIRECTION('Axis2P3D XDirection',(1.,0.,0.)) ;
#441=DIRECTION('Vector Direction',(0.,0.,1.)) ;
#446=DIRECTION('Vector Direction',(0.,0.,1.)) ;
#465=DIRECTION('Axis2P3D Direction',(0.,0.,1.)) ;
#466=DIRECTION('Axis2P3D XDirection',(1.,0.,0.)) ;
#470=DIRECTION('Vector Direction',(0.,0.,1.)) ;
#475=DIRECTION('Vector Direction',(0.,0.,1.)) ;
#494=DIRECTION('Axis2P3D Direction',(0.,0.,1.)) ;
#495=DIRECTION('Axis2P3D XDirection',(1.,0.,0.)) ;
#499=DIRECTION('Vector Direction',(0.,0.,1.)) ;
#504=DIRECTION('Vector Direction',(0.,0.,1.)) ;
#47=PRESENTATION_LAYER_ASSIGNMENT('1',' ',(#38)) ;
#8=PRODUCT_RELATED_PRODUCT_CATEGORY('part',$,(#5)) ;
#7=PRODUCT_CATEGORY('part','specification') ;
#46=STYLED_ITEM(' ',(#45),#38) ;
#45=PRESENTATION_STYLE_ASSIGNMENT((#44)) ;
#44=SURFACE_STYLE_USAGE(.BOTH.,#43) ;
#43=SURFACE_SIDE_STYLE(' ',(#42)) ;
#42=SURFACE_STYLE_FILL_AREA(#41) ;
#41=FILL_AREA_STYLE(' ',(#40)) ;
#40=FILL_AREA_STYLE_COLOUR(' ',#39) ;
#65=VECTOR('Line Direction',#64,1.) ;
#79=VECTOR('Line Direction',#78,1.) ;
#113=VECTOR('Line Direction',#112,1.) ;
#122=VECTOR('Line Direction',#121,1.) ;
#129=VECTOR('Line Direction',#128,1.) ;
#136=VECTOR('Line Direction',#135,1.) ;
#153=VECTOR('Line Direction',#152,1.) ;
#160=VECTOR('Line Direction',#159,1.) ;
#167=VECTOR('Line Direction',#166,1.) ;
#184=VECTOR('Line Direction',#183,1.) ;
#191=VECTOR('Line Direction',#190,1.) ;
#198=VECTOR('Line Direction',#197,1.) ;
#215=VECTOR('Line Direction',#214,1.) ;
#220=VECTOR('Line Direction',#219,1.) ;
#413=VECTOR('Line Direction',#412,1.) ;
#418=VECTOR('Line Direction',#417,1.) ;
#442=VECTOR('Line Direction',#441,1.) ;
#447=VECTOR('Line Direction',#446,1.) ;
#471=VECTOR('Line Direction',#470,1.) ;
#476=VECTOR('Line Direction',#475,1.) ;
#500=VECTOR('Line Direction',#499,1.) ;
#505=VECTOR('Line Direction',#504,1.) ;
#15=UNCERTAINTY_MEASURE_WITH_UNIT(LENGTH_MEASURE(0.005),#12,'distance_accuracy_value','CONFUSED CURVE UNCERTAINTY') ;
#523=SHAPE_REPRESENTATION_RELATIONSHIP(' ',' ',#19,#522) ;
#83=ORIENTED_EDGE('',*,*,#62,.F.) ;
#84=ORIENTED_EDGE('',*,*,#69,.F.) ;
#85=ORIENTED_EDGE('',*,*,#76,.T.) ;
#86=ORIENTED_EDGE('',*,*,#81,.T.) ;
#100=ORIENTED_EDGE('',*,*,#93,.F.) ;
#101=ORIENTED_EDGE('',*,*,#81,.F.) ;
#102=ORIENTED_EDGE('',*,*,#98,.T.) ;
#103=ORIENTED_EDGE('',*,*,#69,.T.) ;
#140=ORIENTED_EDGE('',*,*,#119,.F.) ;
#141=ORIENTED_EDGE('',*,*,#126,.T.) ;
#142=ORIENTED_EDGE('',*,*,#133,.T.) ;
#143=ORIENTED_EDGE('',*,*,#138,.F.) ;
#171=ORIENTED_EDGE('',*,*,#133,.F.) ;
#172=ORIENTED_EDGE('',*,*,#157,.T.) ;
#173=ORIENTED_EDGE('',*,*,#164,.T.) ;
#174=ORIENTED_EDGE('',*,*,#169,.F.) ;
#202=ORIENTED_EDGE('',*,*,#164,.F.) ;
#203=ORIENTED_EDGE('',*,*,#188,.T.) ;
#204=ORIENTED_EDGE('',*,*,#195,.T.) ;
#205=ORIENTED_EDGE('',*,*,#200,.F.) ;
#224=ORIENTED_EDGE('',*,*,#195,.F.) ;
#225=ORIENTED_EDGE('',*,*,#217,.T.) ;
#226=ORIENTED_EDGE('',*,*,#119,.T.) ;
#227=ORIENTED_EDGE('',*,*,#222,.F.) ;
#236=ORIENTED_EDGE('',*,*,#217,.F.) ;
#237=ORIENTED_EDGE('',*,*,#188,.F.) ;
#238=ORIENTED_EDGE('',*,*,#157,.F.) ;
#239=ORIENTED_EDGE('',*,*,#126,.F.) ;
#256=ORIENTED_EDGE('',*,*,#249,.T.) ;
#257=ORIENTED_EDGE('',*,*,#254,.T.) ;
#260=ORIENTED_EDGE('',*,*,#62,.T.) ;
#261=ORIENTED_EDGE('',*,*,#93,.T.) ;
#278=ORIENTED_EDGE('',*,*,#271,.T.) ;
#279=ORIENTED_EDGE('',*,*,#276,.T.) ;
#296=ORIENTED_EDGE('',*,*,#289,.T.) ;
#297=ORIENTED_EDGE('',*,*,#294,.T.) ;
#314=ORIENTED_EDGE('',*,*,#307,.T.) ;
#315=ORIENTED_EDGE('',*,*,#312,.T.) ;
#324=ORIENTED_EDGE('',*,*,#138,.T.) ;
#325=ORIENTED_EDGE('',*,*,#169,.T.) ;
#326=ORIENTED_EDGE('',*,*,#200,.T.) ;
#327=ORIENTED_EDGE('',*,*,#222,.T.) ;
#344=ORIENTED_EDGE('',*,*,#337,.F.) ;
#345=ORIENTED_EDGE('',*,*,#342,.F.) ;
#348=ORIENTED_EDGE('',*,*,#98,.F.) ;
#349=ORIENTED_EDGE('',*,*,#76,.F.) ;
#366=ORIENTED_EDGE('',*,*,#359,.F.) ;
#367=ORIENTED_EDGE('',*,*,#364,.F.) ;
#384=ORIENTED_EDGE('',*,*,#377,.F.) ;
#385=ORIENTED_EDGE('',*,*,#382,.F.) ;
#402=ORIENTED_EDGE('',*,*,#395,.F.) ;
#403=ORIENTED_EDGE('',*,*,#400,.F.) ;
#422=ORIENTED_EDGE('',*,*,#249,.F.) ;
#423=ORIENTED_EDGE('',*,*,#415,.F.) ;
#424=ORIENTED_EDGE('',*,*,#337,.T.) ;
#425=ORIENTED_EDGE('',*,*,#420,.T.) ;
#429=ORIENTED_EDGE('',*,*,#254,.F.) ;
#430=ORIENTED_EDGE('',*,*,#420,.F.) ;
#431=ORIENTED_EDGE('',*,*,#342,.T.) ;
#432=ORIENTED_EDGE('',*,*,#415,.T.) ;
#451=ORIENTED_EDGE('',*,*,#271,.F.) ;
#452=ORIENTED_EDGE('',*,*,#444,.F.) ;
#453=ORIENTED_EDGE('',*,*,#359,.T.) ;
#454=ORIENTED_EDGE('',*,*,#449,.T.) ;
#458=ORIENTED_EDGE('',*,*,#276,.F.) ;
#459=ORIENTED_EDGE('',*,*,#449,.F.) ;
#460=ORIENTED_EDGE('',*,*,#364,.T.) ;
#461=ORIENTED_EDGE('',*,*,#444,.T.) ;
#480=ORIENTED_EDGE('',*,*,#289,.F.) ;
#481=ORIENTED_EDGE('',*,*,#473,.F.) ;
#482=ORIENTED_EDGE('',*,*,#377,.T.) ;
#483=ORIENTED_EDGE('',*,*,#478,.T.) ;
#487=ORIENTED_EDGE('',*,*,#294,.F.) ;
#488=ORIENTED_EDGE('',*,*,#478,.F.) ;
#489=ORIENTED_EDGE('',*,*,#382,.T.) ;
#490=ORIENTED_EDGE('',*,*,#473,.T.) ;
#509=ORIENTED_EDGE('',*,*,#307,.F.) ;
#510=ORIENTED_EDGE('',*,*,#502,.F.) ;
#511=ORIENTED_EDGE('',*,*,#395,.T.) ;
#512=ORIENTED_EDGE('',*,*,#507,.T.) ;
#516=ORIENTED_EDGE('',*,*,#312,.F.) ;
#517=ORIENTED_EDGE('',*,*,#507,.F.) ;
#518=ORIENTED_EDGE('',*,*,#400,.T.) ;
#519=ORIENTED_EDGE('',*,*,#502,.T.) ;
#258=FACE_BOUND('',#255,.T.) ;
#262=FACE_BOUND('',#259,.T.) ;
#280=FACE_BOUND('',#277,.T.) ;
#298=FACE_BOUND('',#295,.T.) ;
#316=FACE_BOUND('',#313,.T.) ;
#346=FACE_BOUND('',#343,.T.) ;
#350=FACE_BOUND('',#347,.T.) ;
#368=FACE_BOUND('',#365,.T.) ;
#386=FACE_BOUND('',#383,.T.) ;
#404=FACE_BOUND('',#401,.T.) ;
#48=CLOSED_SHELL('Closed Shell',(#88,#105,#145,#176,#207,#229,#317,#405,#427,#434,#456,#463,#485,#492,#514,#521)) ;
#522=ADVANCED_BREP_SHAPE_REPRESENTATION('NONE',(#38),#16) ;
#88=ADVANCED_FACE('V1',(#87),#53,.F.) ;
#105=ADVANCED_FACE('V1',(#104),#53,.F.) ;
#145=ADVANCED_FACE('V1',(#144),#110,.T.) ;
#176=ADVANCED_FACE('V1',(#175),#150,.F.) ;
#207=ADVANCED_FACE('V1',(#206),#181,.T.) ;
#229=ADVANCED_FACE('V1',(#228),#212,.F.) ;
#317=ADVANCED_FACE('V1',(#240,#258,#262,#280,#298,#316),#234,.F.) ;
#405=ADVANCED_FACE('V1',(#328,#346,#350,#368,#386,#404),#322,.T.) ;
#427=ADVANCED_FACE('V1',(#426),#410,.F.) ;
#434=ADVANCED_FACE('V1',(#433),#410,.F.) ;
#456=ADVANCED_FACE('V1',(#455),#439,.F.) ;
#463=ADVANCED_FACE('V1',(#462),#439,.F.) ;
#485=ADVANCED_FACE('V1',(#484),#468,.F.) ;
#492=ADVANCED_FACE('V1',(#491),#468,.F.) ;
#514=ADVANCED_FACE('V1',(#513),#497,.F.) ;
#521=ADVANCED_FACE('V1',(#520),#497,.F.) ;
#4=APPLICATION_PROTOCOL_DEFINITION('international standard','automotive_design',2001,#1) ;
#38=MANIFOLD_SOLID_BREP('V1',#48) ;
#57=CIRCLE('generated circle',#56,5.3) ;
#73=CIRCLE('generated circle',#72,5.3) ;
#92=CIRCLE('generated circle',#91,5.3) ;
#97=CIRCLE('generated circle',#96,5.3) ;
#244=CIRCLE('generated circle',#243,5.3) ;
#253=CIRCLE('generated circle',#252,5.3) ;
#266=CIRCLE('generated circle',#265,5.3) ;
#275=CIRCLE('generated circle',#274,5.3) ;
#284=CIRCLE('generated circle',#283,5.3) ;
#293=CIRCLE('generated circle',#292,5.3) ;
#302=CIRCLE('generated circle',#301,5.3) ;
#311=CIRCLE('generated circle',#310,5.3) ;
#332=CIRCLE('generated circle',#331,5.3) ;
#341=CIRCLE('generated circle',#340,5.3) ;
#354=CIRCLE('generated circle',#353,5.3) ;
#363=CIRCLE('generated circle',#362,5.3) ;
#372=CIRCLE('generated circle',#371,5.3) ;
#381=CIRCLE('generated circle',#380,5.3) ;
#390=CIRCLE('generated circle',#389,5.3) ;
#399=CIRCLE('generated circle',#398,5.3) ;
#39=COLOUR_RGB('Colour',0.823529411765,0.823529411765,1.) ;
#26=CONSTRUCTIVE_GEOMETRY_REPRESENTATION('supplemental geometry',(#25,#32,#37),#16) ;
#27=CONSTRUCTIVE_GEOMETRY_REPRESENTATION_RELATIONSHIP('supplemental geometry','',#19,#26) ;
#53=CYLINDRICAL_SURFACE('generated cylinder',#52,5.3) ;
#410=CYLINDRICAL_SURFACE('generated cylinder',#409,5.3) ;
#439=CYLINDRICAL_SURFACE('generated cylinder',#438,5.3) ;
#468=CYLINDRICAL_SURFACE('generated cylinder',#467,5.3) ;
#497=CYLINDRICAL_SURFACE('generated cylinder',#496,5.3) ;
#62=EDGE_CURVE('',#59,#61,#57,.T.) ;
#69=EDGE_CURVE('',#68,#59,#66,.F.) ;
#76=EDGE_CURVE('',#68,#75,#73,.T.) ;
#81=EDGE_CURVE('',#75,#61,#80,.F.) ;
#93=EDGE_CURVE('',#61,#59,#92,.T.) ;
#98=EDGE_CURVE('',#75,#68,#97,.T.) ;
#119=EDGE_CURVE('',#116,#118,#114,.T.) ;
#126=EDGE_CURVE('',#116,#125,#123,.T.) ;
#133=EDGE_CURVE('',#125,#132,#130,.T.) ;
#138=EDGE_CURVE('',#118,#132,#137,.T.) ;
#157=EDGE_CURVE('',#125,#156,#154,.F.) ;
#164=EDGE_CURVE('',#156,#163,#161,.T.) ;
#169=EDGE_CURVE('',#132,#163,#168,.F.) ;
#188=EDGE_CURVE('',#156,#187,#185,.T.) ;
#195=EDGE_CURVE('',#187,#194,#192,.T.) ;
#200=EDGE_CURVE('',#163,#194,#199,.T.) ;
#217=EDGE_CURVE('',#187,#116,#216,.F.) ;
#222=EDGE_CURVE('',#194,#118,#221,.F.) ;
#249=EDGE_CURVE('',#246,#248,#244,.T.) ;
#254=EDGE_CURVE('',#248,#246,#253,.T.) ;
#271=EDGE_CURVE('',#268,#270,#266,.T.) ;
#276=EDGE_CURVE('',#270,#268,#275,.T.) ;
#289=EDGE_CURVE('',#286,#288,#284,.T.) ;
#294=EDGE_CURVE('',#288,#286,#293,.T.) ;
#307=EDGE_CURVE('',#304,#306,#302,.T.) ;
#312=EDGE_CURVE('',#306,#304,#311,.T.) ;
#337=EDGE_CURVE('',#334,#336,#332,.T.) ;
#342=EDGE_CURVE('',#336,#334,#341,.T.) ;
#359=EDGE_CURVE('',#356,#358,#354,.T.) ;
#364=EDGE_CURVE('',#358,#356,#363,.T.) ;
#377=EDGE_CURVE('',#374,#376,#372,.T.) ;
#382=EDGE_CURVE('',#376,#374,#381,.T.) ;
#395=EDGE_CURVE('',#392,#394,#390,.T.) ;
#400=EDGE_CURVE('',#394,#392,#399,.T.) ;
#415=EDGE_CURVE('',#334,#246,#414,.F.) ;
#420=EDGE_CURVE('',#336,#248,#419,.F.) ;
#444=EDGE_CURVE('',#356,#268,#443,.F.) ;
#449=EDGE_CURVE('',#358,#270,#448,.F.) ;
#473=EDGE_CURVE('',#374,#286,#472,.F.) ;
#478=EDGE_CURVE('',#376,#288,#477,.F.) ;
#502=EDGE_CURVE('',#392,#304,#501,.F.) ;
#507=EDGE_CURVE('',#394,#306,#506,.F.) ;
#82=EDGE_LOOP('',(#83,#84,#85,#86)) ;
#99=EDGE_LOOP('',(#100,#101,#102,#103)) ;
#139=EDGE_LOOP('',(#140,#141,#142,#143)) ;
#170=EDGE_LOOP('',(#171,#172,#173,#174)) ;
#201=EDGE_LOOP('',(#202,#203,#204,#205)) ;
#223=EDGE_LOOP('',(#224,#225,#226,#227)) ;
#235=EDGE_LOOP('',(#236,#237,#238,#239)) ;
#255=EDGE_LOOP('',(#256,#257)) ;
#259=EDGE_LOOP('',(#260,#261)) ;
#277=EDGE_LOOP('',(#278,#279)) ;
#295=EDGE_LOOP('',(#296,#297)) ;
#313=EDGE_LOOP('',(#314,#315)) ;
#323=EDGE_LOOP('',(#324,#325,#326,#327)) ;
#343=EDGE_LOOP('',(#344,#345)) ;
#347=EDGE_LOOP('',(#348,#349)) ;
#365=EDGE_LOOP('',(#366,#367)) ;
#383=EDGE_LOOP('',(#384,#385)) ;
#401=EDGE_LOOP('',(#402,#403)) ;
#421=EDGE_LOOP('',(#422,#423,#424,#425)) ;
#428=EDGE_LOOP('',(#429,#430,#431,#432)) ;
#450=EDGE_LOOP('',(#451,#452,#453,#454)) ;
#457=EDGE_LOOP('',(#458,#459,#460,#461)) ;
#479=EDGE_LOOP('',(#480,#481,#482,#483)) ;
#486=EDGE_LOOP('',(#487,#488,#489,#490)) ;
#508=EDGE_LOOP('',(#509,#510,#511,#512)) ;
#515=EDGE_LOOP('',(#516,#517,#518,#519)) ;
#87=FACE_OUTER_BOUND('',#82,.T.) ;
#104=FACE_OUTER_BOUND('',#99,.T.) ;
#144=FACE_OUTER_BOUND('',#139,.T.) ;
#175=FACE_OUTER_BOUND('',#170,.T.) ;
#206=FACE_OUTER_BOUND('',#201,.T.) ;
#228=FACE_OUTER_BOUND('',#223,.T.) ;
#240=FACE_OUTER_BOUND('',#235,.T.) ;
#328=FACE_OUTER_BOUND('',#323,.T.) ;
#426=FACE_OUTER_BOUND('',#421,.T.) ;
#433=FACE_OUTER_BOUND('',#428,.T.) ;
#455=FACE_OUTER_BOUND('',#450,.T.) ;
#462=FACE_OUTER_BOUND('',#457,.T.) ;
#484=FACE_OUTER_BOUND('',#479,.T.) ;
#491=FACE_OUTER_BOUND('',#486,.T.) ;
#513=FACE_OUTER_BOUND('',#508,.T.) ;
#520=FACE_OUTER_BOUND('',#515,.T.) ;
#66=LINE('Line',#63,#65) ;
#80=LINE('Line',#77,#79) ;
#114=LINE('Line',#111,#113) ;
#123=LINE('Line',#120,#122) ;
#130=LINE('Line',#127,#129) ;
#137=LINE('Line',#134,#136) ;
#154=LINE('Line',#151,#153) ;
#161=LINE('Line',#158,#160) ;
#168=LINE('Line',#165,#167) ;
#185=LINE('Line',#182,#184) ;
#192=LINE('Line',#189,#191) ;
#199=LINE('Line',#196,#198) ;
#216=LINE('Line',#213,#215) ;
#221=LINE('Line',#218,#220) ;
#414=LINE('Line',#411,#413) ;
#419=LINE('Line',#416,#418) ;
#443=LINE('Line',#440,#442) ;
#448=LINE('Line',#445,#447) ;
#472=LINE('Line',#469,#471) ;
#477=LINE('Line',#474,#476) ;
#501=LINE('Line',#498,#500) ;
#506=LINE('Line',#503,#505) ;
#25=PLANE('Referenz_xy',#24) ;
#32=PLANE('Referenz_yz',#31) ;
#37=PLANE('Referenz_xz',#36) ;
#110=PLANE('',#109) ;
#150=PLANE('',#149) ;
#181=PLANE('',#180) ;
#212=PLANE('',#211) ;
#234=PLANE('',#233) ;
#322=PLANE('',#321) ;
#9=PRODUCT_CATEGORY_RELATIONSHIP(' ',' ',#7,#8) ;
#6=PRODUCT_DEFINITION_FORMATION_WITH_SPECIFIED_SOURCE('',' ',#5,.NOT_KNOWN.) ;
#20=SHAPE_DEFINITION_REPRESENTATION(#11,#19) ;
#59=VERTEX_POINT('',#58) ;
#61=VERTEX_POINT('',#60) ;
#68=VERTEX_POINT('',#67) ;
#75=VERTEX_POINT('',#74) ;
#116=VERTEX_POINT('',#115) ;
#118=VERTEX_POINT('',#117) ;
#125=VERTEX_POINT('',#124) ;
#132=VERTEX_POINT('',#131) ;
#156=VERTEX_POINT('',#155) ;
#163=VERTEX_POINT('',#162) ;
#187=VERTEX_POINT('',#186) ;
#194=VERTEX_POINT('',#193) ;
#246=VERTEX_POINT('',#245) ;
#248=VERTEX_POINT('',#247) ;
#268=VERTEX_POINT('',#267) ;
#270=VERTEX_POINT('',#269) ;
#286=VERTEX_POINT('',#285) ;
#288=VERTEX_POINT('',#287) ;
#304=VERTEX_POINT('',#303) ;
#306=VERTEX_POINT('',#305) ;
#334=VERTEX_POINT('',#333) ;
#336=VERTEX_POINT('',#335) ;
#356=VERTEX_POINT('',#355) ;
#358=VERTEX_POINT('',#357) ;
#374=VERTEX_POINT('',#373) ;
#376=VERTEX_POINT('',#375) ;
#392=VERTEX_POINT('',#391) ;
#394=VERTEX_POINT('',#393) ;
#12=(LENGTH_UNIT()NAMED_UNIT(*)SI_UNIT(.MILLI.,.METRE.)) ;
#13=(NAMED_UNIT(*)PLANE_ANGLE_UNIT()SI_UNIT($,.RADIAN.)) ;
#14=(NAMED_UNIT(*)SI_UNIT($,.STERADIAN.)SOLID_ANGLE_UNIT()) ;
#16=(GEOMETRIC_REPRESENTATION_CONTEXT(3)GLOBAL_UNCERTAINTY_ASSIGNED_CONTEXT((#15))GLOBAL_UNIT_ASSIGNED_CONTEXT((#12,#13,#14))REPRESENTATION_CONTEXT(' ',' ')) ;
ENDSEC;
END-ISO-10303-21;
