ISO-10303-21;
HEADER;
FILE_DESCRIPTION(('CATIA V5R24 STEP','CAx-IF Rec.Pracs.--- Model Styling and Organization---1.2---2011-12-15'),'2;1');

FILE_NAME ('001694-1_1', '2018-07-19T09:54:07+00:00', ('Weidmueller Interface'), ('Weidmueller'), 'CATIA Version 5-6 Release 2014 SP4 HF52', 'CATIA V5 STEP AP214', 'none');

FILE_SCHEMA(('AUTOMOTIVE_DESIGN { 1 0 10303 214 1 1 1 1 }'));

ENDSEC;
DATA;
#5=PRODUCT('0285200000','','VERBINDUNGSHUELSE',(#2)) ;
#2=PRODUCT_CONTEXT(' ',#1,'mechanical') ;
#1=APPLICATION_CONTEXT('automotive design') ;
#10=PRODUCT_DEFINITION('',' ',#6,#3) ;
#3=PRODUCT_DEFINITION_CONTEXT('part definition',#1,' ') ;
#11=PRODUCT_DEFINITION_SHAPE(' ',' ',#10) ;
#302=MECHANICAL_DESIGN_GEOMETRIC_PRESENTATION_REPRESENTATION(' ',(#46),#16) ;
#19=SHAPE_REPRESENTATION(' ',(#18),#16) ;
#18=AXIS2_PLACEMENT_3D(' ',#17,$,$) ;
#24=AXIS2_PLACEMENT_3D('Plane Axis2P3D',#21,#22,#23) ;
#31=AXIS2_PLACEMENT_3D('Plane Axis2P3D',#28,#29,#30) ;
#36=AXIS2_PLACEMENT_3D('Plane Axis2P3D',#33,#34,#35) ;
#52=AXIS2_PLACEMENT_3D('Plane Axis2P3D',#49,#50,#51) ;
#56=AXIS2_PLACEMENT_3D('Circle Axis2P3D',#54,#55,$) ;
#65=AXIS2_PLACEMENT_3D('Circle Axis2P3D',#63,#64,$) ;
#84=AXIS2_PLACEMENT_3D('Cylinder Axis2P3D',#81,#82,#83) ;
#97=AXIS2_PLACEMENT_3D('Circle Axis2P3D',#95,#96,$) ;
#111=AXIS2_PLACEMENT_3D('Circle Axis2P3D',#109,#110,$) ;
#130=AXIS2_PLACEMENT_3D('Circle Axis2P3D',#128,#129,$) ;
#147=AXIS2_PLACEMENT_3D('Cylinder Axis2P3D',#144,#145,#146) ;
#151=AXIS2_PLACEMENT_3D('Circle Axis2P3D',#149,#150,$) ;
#156=AXIS2_PLACEMENT_3D('Circle Axis2P3D',#154,#155,$) ;
#161=AXIS2_PLACEMENT_3D('Circle Axis2P3D',#159,#160,$) ;
#185=AXIS2_PLACEMENT_3D('Plane Axis2P3D',#182,#183,#184) ;
#202=AXIS2_PLACEMENT_3D('Plane Axis2P3D',#199,#200,#201) ;
#210=AXIS2_PLACEMENT_3D('Circle Axis2P3D',#208,#209,$) ;
#219=AXIS2_PLACEMENT_3D('Circle Axis2P3D',#217,#218,$) ;
#230=AXIS2_PLACEMENT_3D('Plane Axis2P3D',#227,#228,#229) ;
#238=AXIS2_PLACEMENT_3D('Circle Axis2P3D',#236,#237,$) ;
#247=AXIS2_PLACEMENT_3D('Circle Axis2P3D',#245,#246,$) ;
#258=AXIS2_PLACEMENT_3D('Plane Axis2P3D',#255,#256,#257) ;
#269=AXIS2_PLACEMENT_3D('Cylinder Axis2P3D',#266,#267,#268) ;
#291=AXIS2_PLACEMENT_3D('Cylinder Axis2P3D',#288,#289,#290) ;
#17=CARTESIAN_POINT(' ',(0.,0.,0.)) ;
#21=CARTESIAN_POINT('Axis2P3D Location',(0.,0.,0.)) ;
#28=CARTESIAN_POINT('Axis2P3D Location',(0.,0.,0.)) ;
#33=CARTESIAN_POINT('Axis2P3D Location',(0.,0.,0.)) ;
#49=CARTESIAN_POINT('Axis2P3D Location',(2.5,4.6,4.65)) ;
#54=CARTESIAN_POINT('Axis2P3D Location',(2.49999999971,2.50000000469,4.65)) ;
#58=CARTESIAN_POINT('Vertex',(3.69856384583,4.6939564053,4.65)) ;
#60=CARTESIAN_POINT('Vertex',(1.14353400283,4.6,4.65)) ;
#63=CARTESIAN_POINT('Axis2P3D Location',(2.5000004318,2.50000072238,4.65)) ;
#67=CARTESIAN_POINT('Vertex',(3.85646599717,4.6,4.65)) ;
#70=CARTESIAN_POINT('Line Origine',(2.5,4.6,4.65)) ;
#81=CARTESIAN_POINT('Axis2P3D Location',(2.5,2.5,8.75)) ;
#86=CARTESIAN_POINT('Line Origine',(3.69856384651,4.69395640473,8.75)) ;
#90=CARTESIAN_POINT('Vertex',(3.69856384583,4.69395640492,-4.78396464036E-016)) ;
#92=CARTESIAN_POINT('Vertex',(3.69856384583,4.6939564053,3.35)) ;
#95=CARTESIAN_POINT('Axis2P3D Location',(2.5,2.5,0.)) ;
#99=CARTESIAN_POINT('Vertex',(1.30143615417,0.306043595076,-4.78396464036E-016)) ;
#102=CARTESIAN_POINT('Line Origine',(1.30143615349,0.306043595274,8.75)) ;
#106=CARTESIAN_POINT('Vertex',(1.30143615417,0.306043595076,17.5)) ;
#109=CARTESIAN_POINT('Axis2P3D Location',(2.5,2.5,17.5)) ;
#113=CARTESIAN_POINT('Vertex',(3.69856384583,4.69395640492,17.5)) ;
#116=CARTESIAN_POINT('Line Origine',(3.69856384651,4.69395640473,8.75)) ;
#121=CARTESIAN_POINT('Line Origine',(1.14353400337,4.6,8.75)) ;
#125=CARTESIAN_POINT('Vertex',(1.14353400283,4.6,3.34999999925)) ;
#128=CARTESIAN_POINT('Axis2P3D Location',(2.5,2.5,3.34999999963)) ;
#144=CARTESIAN_POINT('Axis2P3D Location',(2.5,2.5,8.75)) ;
#149=CARTESIAN_POINT('Axis2P3D Location',(2.5,2.5,17.5)) ;
#154=CARTESIAN_POINT('Axis2P3D Location',(2.5,2.5,-1.7763568394E-015)) ;
#159=CARTESIAN_POINT('Axis2P3D Location',(2.5,2.5,3.34999999963)) ;
#163=CARTESIAN_POINT('Vertex',(3.85646599717,4.6,3.34999999925)) ;
#166=CARTESIAN_POINT('Line Origine',(3.85646599663,4.6,8.75)) ;
#182=CARTESIAN_POINT('Axis2P3D Location',(2.5,4.6,4.65)) ;
#187=CARTESIAN_POINT('Line Origine',(2.5,4.6,3.34999999925)) ;
#199=CARTESIAN_POINT('Axis2P3D Location',(2.5,4.25,-4.78396464036E-016)) ;
#208=CARTESIAN_POINT('Axis2P3D Location',(2.5,2.5,-4.78396464036E-016)) ;
#212=CARTESIAN_POINT('Vertex',(3.33899469256,4.03576948331,-1.7763568394E-015)) ;
#214=CARTESIAN_POINT('Vertex',(1.66100530744,0.964230516692,-1.7763568394E-015)) ;
#217=CARTESIAN_POINT('Axis2P3D Location',(2.5,2.5,-4.78396464036E-016)) ;
#227=CARTESIAN_POINT('Axis2P3D Location',(2.5,4.25,17.5)) ;
#236=CARTESIAN_POINT('Axis2P3D Location',(2.5,2.5,17.5)) ;
#240=CARTESIAN_POINT('Vertex',(1.66100530744,0.964230516692,17.5)) ;
#242=CARTESIAN_POINT('Vertex',(3.33899469256,4.03576948331,17.5)) ;
#245=CARTESIAN_POINT('Axis2P3D Location',(2.5,2.5,17.5)) ;
#255=CARTESIAN_POINT('Axis2P3D Location',(2.5,5.6,3.35)) ;
#266=CARTESIAN_POINT('Axis2P3D Location',(2.5,2.5,8.75)) ;
#271=CARTESIAN_POINT('Line Origine',(3.33899469256,4.03576948331,8.75)) ;
#276=CARTESIAN_POINT('Line Origine',(1.66100530744,0.964230516692,8.75)) ;
#288=CARTESIAN_POINT('Axis2P3D Location',(2.5,2.5,8.75)) ;
#22=DIRECTION('Axis2P3D Direction',(0.,0.,1.)) ;
#23=DIRECTION('Axis2P3D XDirection',(1.,0.,0.)) ;
#29=DIRECTION('Axis2P3D Direction',(1.,0.,0.)) ;
#30=DIRECTION('Axis2P3D XDirection',(0.,1.,0.)) ;
#34=DIRECTION('Axis2P3D Direction',(0.,1.,0.)) ;
#35=DIRECTION('Axis2P3D XDirection',(0.,0.,1.)) ;
#50=DIRECTION('Axis2P3D Direction',(0.,-0.,1.)) ;
#51=DIRECTION('Axis2P3D XDirection',(0.,1.,0.)) ;
#55=DIRECTION('Axis2P3D Direction',(0.,-0.,1.)) ;
#64=DIRECTION('Axis2P3D Direction',(0.,-0.,1.)) ;
#71=DIRECTION('Vector Direction',(-1.,0.,0.)) ;
#82=DIRECTION('Axis2P3D Direction',(0.,0.,-1.)) ;
#83=DIRECTION('Axis2P3D XDirection',(-0.479425538604,-0.87758256189,0.)) ;
#87=DIRECTION('Vector Direction',(0.,0.,-1.)) ;
#96=DIRECTION('Axis2P3D Direction',(0.,0.,-1.)) ;
#103=DIRECTION('Vector Direction',(0.,0.,-1.)) ;
#110=DIRECTION('Axis2P3D Direction',(0.,0.,-1.)) ;
#117=DIRECTION('Vector Direction',(0.,0.,-1.)) ;
#122=DIRECTION('Vector Direction',(0.,0.,-1.)) ;
#129=DIRECTION('Axis2P3D Direction',(0.,0.,-1.)) ;
#145=DIRECTION('Axis2P3D Direction',(0.,0.,-1.)) ;
#146=DIRECTION('Axis2P3D XDirection',(0.479425538604,0.87758256189,0.)) ;
#150=DIRECTION('Axis2P3D Direction',(0.,0.,-1.)) ;
#155=DIRECTION('Axis2P3D Direction',(0.,0.,-1.)) ;
#160=DIRECTION('Axis2P3D Direction',(0.,0.,-1.)) ;
#167=DIRECTION('Vector Direction',(0.,0.,-1.)) ;
#183=DIRECTION('Axis2P3D Direction',(0.,1.,0.)) ;
#184=DIRECTION('Axis2P3D XDirection',(0.,0.,-1.)) ;
#188=DIRECTION('Vector Direction',(-1.,0.,0.)) ;
#200=DIRECTION('Axis2P3D Direction',(0.,0.,-1.)) ;
#201=DIRECTION('Axis2P3D XDirection',(1.,0.,0.)) ;
#209=DIRECTION('Axis2P3D Direction',(0.,0.,-1.)) ;
#218=DIRECTION('Axis2P3D Direction',(0.,0.,-1.)) ;
#228=DIRECTION('Axis2P3D Direction',(0.,0.,-1.)) ;
#229=DIRECTION('Axis2P3D XDirection',(1.,0.,0.)) ;
#237=DIRECTION('Axis2P3D Direction',(0.,0.,-1.)) ;
#246=DIRECTION('Axis2P3D Direction',(0.,0.,-1.)) ;
#256=DIRECTION('Axis2P3D Direction',(-0.,-0.,-1.)) ;
#257=DIRECTION('Axis2P3D XDirection',(0.,-1.,0.)) ;
#267=DIRECTION('Axis2P3D Direction',(0.,0.,-1.)) ;
#268=DIRECTION('Axis2P3D XDirection',(0.479425538604,0.87758256189,0.)) ;
#272=DIRECTION('Vector Direction',(0.,0.,-1.)) ;
#277=DIRECTION('Vector Direction',(0.,0.,-1.)) ;
#289=DIRECTION('Axis2P3D Direction',(0.,0.,-1.)) ;
#290=DIRECTION('Axis2P3D XDirection',(-0.479425538604,-0.87758256189,0.)) ;
#47=PRESENTATION_LAYER_ASSIGNMENT('1',' ',(#38)) ;
#8=PRODUCT_RELATED_PRODUCT_CATEGORY('part',$,(#5)) ;
#7=PRODUCT_CATEGORY('part','specification') ;
#46=STYLED_ITEM(' ',(#45),#38) ;
#45=PRESENTATION_STYLE_ASSIGNMENT((#44)) ;
#44=SURFACE_STYLE_USAGE(.BOTH.,#43) ;
#43=SURFACE_SIDE_STYLE(' ',(#42)) ;
#42=SURFACE_STYLE_FILL_AREA(#41) ;
#41=FILL_AREA_STYLE(' ',(#40)) ;
#40=FILL_AREA_STYLE_COLOUR(' ',#39) ;
#72=VECTOR('Line Direction',#71,1.) ;
#88=VECTOR('Line Direction',#87,1.) ;
#104=VECTOR('Line Direction',#103,1.) ;
#118=VECTOR('Line Direction',#117,1.) ;
#123=VECTOR('Line Direction',#122,1.) ;
#168=VECTOR('Line Direction',#167,1.) ;
#189=VECTOR('Line Direction',#188,1.) ;
#273=VECTOR('Line Direction',#272,1.) ;
#278=VECTOR('Line Direction',#277,1.) ;
#15=UNCERTAINTY_MEASURE_WITH_UNIT(LENGTH_MEASURE(0.005),#12,'distance_accuracy_value','CONFUSED CURVE UNCERTAINTY') ;
#301=SHAPE_REPRESENTATION_RELATIONSHIP(' ',' ',#19,#300) ;
#76=ORIENTED_EDGE('',*,*,#62,.F.) ;
#77=ORIENTED_EDGE('',*,*,#69,.F.) ;
#78=ORIENTED_EDGE('',*,*,#74,.T.) ;
#134=ORIENTED_EDGE('',*,*,#94,.F.) ;
#135=ORIENTED_EDGE('',*,*,#101,.F.) ;
#136=ORIENTED_EDGE('',*,*,#108,.T.) ;
#137=ORIENTED_EDGE('',*,*,#115,.T.) ;
#138=ORIENTED_EDGE('',*,*,#120,.F.) ;
#139=ORIENTED_EDGE('',*,*,#62,.T.) ;
#140=ORIENTED_EDGE('',*,*,#127,.T.) ;
#141=ORIENTED_EDGE('',*,*,#132,.T.) ;
#172=ORIENTED_EDGE('',*,*,#120,.T.) ;
#173=ORIENTED_EDGE('',*,*,#153,.T.) ;
#174=ORIENTED_EDGE('',*,*,#108,.F.) ;
#175=ORIENTED_EDGE('',*,*,#158,.F.) ;
#176=ORIENTED_EDGE('',*,*,#94,.T.) ;
#177=ORIENTED_EDGE('',*,*,#165,.T.) ;
#178=ORIENTED_EDGE('',*,*,#170,.F.) ;
#179=ORIENTED_EDGE('',*,*,#69,.T.) ;
#193=ORIENTED_EDGE('',*,*,#170,.T.) ;
#194=ORIENTED_EDGE('',*,*,#191,.T.) ;
#195=ORIENTED_EDGE('',*,*,#127,.F.) ;
#196=ORIENTED_EDGE('',*,*,#74,.F.) ;
#205=ORIENTED_EDGE('',*,*,#101,.T.) ;
#206=ORIENTED_EDGE('',*,*,#158,.T.) ;
#223=ORIENTED_EDGE('',*,*,#216,.F.) ;
#224=ORIENTED_EDGE('',*,*,#221,.F.) ;
#233=ORIENTED_EDGE('',*,*,#153,.F.) ;
#234=ORIENTED_EDGE('',*,*,#115,.F.) ;
#251=ORIENTED_EDGE('',*,*,#244,.T.) ;
#252=ORIENTED_EDGE('',*,*,#249,.T.) ;
#261=ORIENTED_EDGE('',*,*,#165,.F.) ;
#262=ORIENTED_EDGE('',*,*,#132,.F.) ;
#263=ORIENTED_EDGE('',*,*,#191,.F.) ;
#282=ORIENTED_EDGE('',*,*,#249,.F.) ;
#283=ORIENTED_EDGE('',*,*,#275,.T.) ;
#284=ORIENTED_EDGE('',*,*,#216,.T.) ;
#285=ORIENTED_EDGE('',*,*,#280,.F.) ;
#294=ORIENTED_EDGE('',*,*,#244,.F.) ;
#295=ORIENTED_EDGE('',*,*,#280,.T.) ;
#296=ORIENTED_EDGE('',*,*,#221,.T.) ;
#297=ORIENTED_EDGE('',*,*,#275,.F.) ;
#225=FACE_BOUND('',#222,.T.) ;
#253=FACE_BOUND('',#250,.T.) ;
#48=CLOSED_SHELL('Closed Shell',(#80,#143,#181,#198,#226,#254,#265,#287,#299)) ;
#300=ADVANCED_BREP_SHAPE_REPRESENTATION('NONE',(#38),#16) ;
#80=ADVANCED_FACE('K\X2\00F6\X0\rper.2',(#79),#53,.F.) ;
#143=ADVANCED_FACE('K\X2\00F6\X0\rper.2',(#142),#85,.T.) ;
#181=ADVANCED_FACE('K\X2\00F6\X0\rper.2',(#180),#148,.T.) ;
#198=ADVANCED_FACE('K\X2\00F6\X0\rper.2',(#197),#186,.T.) ;
#226=ADVANCED_FACE('K\X2\00F6\X0\rper.2',(#207,#225),#203,.T.) ;
#254=ADVANCED_FACE('K\X2\00F6\X0\rper.2',(#235,#253),#231,.F.) ;
#265=ADVANCED_FACE('K\X2\00F6\X0\rper.2',(#264),#259,.F.) ;
#287=ADVANCED_FACE('K\X2\00F6\X0\rper.2',(#286),#270,.F.) ;
#299=ADVANCED_FACE('K\X2\00F6\X0\rper.2',(#298),#292,.F.) ;
#4=APPLICATION_PROTOCOL_DEFINITION('international standard','automotive_design',2001,#1) ;
#38=MANIFOLD_SOLID_BREP('K\X2\00F6\X0\rper.2',#48) ;
#57=CIRCLE('generated circle',#56,2.4999999962) ;
#66=CIRCLE('generated circle',#65,2.49999915921) ;
#98=CIRCLE('generated circle',#97,2.5) ;
#112=CIRCLE('generated circle',#111,2.5) ;
#131=CIRCLE('generated circle',#130,2.5) ;
#152=CIRCLE('generated circle',#151,2.5) ;
#157=CIRCLE('generated circle',#156,2.5) ;
#162=CIRCLE('generated circle',#161,2.5) ;
#211=CIRCLE('generated circle',#210,1.75000000001) ;
#220=CIRCLE('generated circle',#219,1.75000000001) ;
#239=CIRCLE('generated circle',#238,1.75000000001) ;
#248=CIRCLE('generated circle',#247,1.75000000001) ;
#39=COLOUR_RGB('Colour',0.823529411765,0.823529411765,1.) ;
#26=CONSTRUCTIVE_GEOMETRY_REPRESENTATION('supplemental geometry',(#25,#32,#37),#16) ;
#27=CONSTRUCTIVE_GEOMETRY_REPRESENTATION_RELATIONSHIP('supplemental geometry','',#19,#26) ;
#85=CYLINDRICAL_SURFACE('generated cylinder',#84,2.5) ;
#148=CYLINDRICAL_SURFACE('generated cylinder',#147,2.5) ;
#270=CYLINDRICAL_SURFACE('generated cylinder',#269,1.75) ;
#292=CYLINDRICAL_SURFACE('generated cylinder',#291,1.75) ;
#62=EDGE_CURVE('',#59,#61,#57,.T.) ;
#69=EDGE_CURVE('',#68,#59,#66,.T.) ;
#74=EDGE_CURVE('',#68,#61,#73,.T.) ;
#94=EDGE_CURVE('',#91,#93,#89,.F.) ;
#101=EDGE_CURVE('',#100,#91,#98,.T.) ;
#108=EDGE_CURVE('',#100,#107,#105,.F.) ;
#115=EDGE_CURVE('',#107,#114,#112,.T.) ;
#120=EDGE_CURVE('',#59,#114,#119,.F.) ;
#127=EDGE_CURVE('',#61,#126,#124,.T.) ;
#132=EDGE_CURVE('',#126,#93,#131,.T.) ;
#153=EDGE_CURVE('',#114,#107,#152,.T.) ;
#158=EDGE_CURVE('',#91,#100,#157,.T.) ;
#165=EDGE_CURVE('',#93,#164,#162,.T.) ;
#170=EDGE_CURVE('',#68,#164,#169,.T.) ;
#191=EDGE_CURVE('',#164,#126,#190,.T.) ;
#216=EDGE_CURVE('',#213,#215,#211,.T.) ;
#221=EDGE_CURVE('',#215,#213,#220,.T.) ;
#244=EDGE_CURVE('',#241,#243,#239,.T.) ;
#249=EDGE_CURVE('',#243,#241,#248,.T.) ;
#275=EDGE_CURVE('',#243,#213,#274,.T.) ;
#280=EDGE_CURVE('',#241,#215,#279,.T.) ;
#75=EDGE_LOOP('',(#76,#77,#78)) ;
#133=EDGE_LOOP('',(#134,#135,#136,#137,#138,#139,#140,#141)) ;
#171=EDGE_LOOP('',(#172,#173,#174,#175,#176,#177,#178,#179)) ;
#192=EDGE_LOOP('',(#193,#194,#195,#196)) ;
#204=EDGE_LOOP('',(#205,#206)) ;
#222=EDGE_LOOP('',(#223,#224)) ;
#232=EDGE_LOOP('',(#233,#234)) ;
#250=EDGE_LOOP('',(#251,#252)) ;
#260=EDGE_LOOP('',(#261,#262,#263)) ;
#281=EDGE_LOOP('',(#282,#283,#284,#285)) ;
#293=EDGE_LOOP('',(#294,#295,#296,#297)) ;
#79=FACE_OUTER_BOUND('',#75,.T.) ;
#142=FACE_OUTER_BOUND('',#133,.T.) ;
#180=FACE_OUTER_BOUND('',#171,.T.) ;
#197=FACE_OUTER_BOUND('',#192,.T.) ;
#207=FACE_OUTER_BOUND('',#204,.T.) ;
#235=FACE_OUTER_BOUND('',#232,.T.) ;
#264=FACE_OUTER_BOUND('',#260,.T.) ;
#286=FACE_OUTER_BOUND('',#281,.T.) ;
#298=FACE_OUTER_BOUND('',#293,.T.) ;
#73=LINE('Line',#70,#72) ;
#89=LINE('Line',#86,#88) ;
#105=LINE('Line',#102,#104) ;
#119=LINE('Line',#116,#118) ;
#124=LINE('Line',#121,#123) ;
#169=LINE('Line',#166,#168) ;
#190=LINE('Line',#187,#189) ;
#274=LINE('Line',#271,#273) ;
#279=LINE('Line',#276,#278) ;
#25=PLANE('Referenz_xy',#24) ;
#32=PLANE('Referenz_yz',#31) ;
#37=PLANE('Referenz_zx',#36) ;
#53=PLANE('',#52) ;
#186=PLANE('',#185) ;
#203=PLANE('',#202) ;
#231=PLANE('',#230) ;
#259=PLANE('',#258) ;
#9=PRODUCT_CATEGORY_RELATIONSHIP(' ',' ',#7,#8) ;
#6=PRODUCT_DEFINITION_FORMATION_WITH_SPECIFIED_SOURCE('',' ',#5,.NOT_KNOWN.) ;
#20=SHAPE_DEFINITION_REPRESENTATION(#11,#19) ;
#59=VERTEX_POINT('',#58) ;
#61=VERTEX_POINT('',#60) ;
#68=VERTEX_POINT('',#67) ;
#91=VERTEX_POINT('',#90) ;
#93=VERTEX_POINT('',#92) ;
#100=VERTEX_POINT('',#99) ;
#107=VERTEX_POINT('',#106) ;
#114=VERTEX_POINT('',#113) ;
#126=VERTEX_POINT('',#125) ;
#164=VERTEX_POINT('',#163) ;
#213=VERTEX_POINT('',#212) ;
#215=VERTEX_POINT('',#214) ;
#241=VERTEX_POINT('',#240) ;
#243=VERTEX_POINT('',#242) ;
#12=(LENGTH_UNIT()NAMED_UNIT(*)SI_UNIT(.MILLI.,.METRE.)) ;
#13=(NAMED_UNIT(*)PLANE_ANGLE_UNIT()SI_UNIT($,.RADIAN.)) ;
#14=(NAMED_UNIT(*)SI_UNIT($,.STERADIAN.)SOLID_ANGLE_UNIT()) ;
#16=(GEOMETRIC_REPRESENTATION_CONTEXT(3)GLOBAL_UNCERTAINTY_ASSIGNED_CONTEXT((#15))GLOBAL_UNIT_ASSIGNED_CONTEXT((#12,#13,#14))REPRESENTATION_CONTEXT(' ',' ')) ;
ENDSEC;
END-ISO-10303-21;
