ISO-10303-21;
HEADER;
FILE_DESCRIPTION(('CATIA V5R22 STEP214','CAx-IF Rec.Pracs.--- Model Styling and Organization---1.4--- 2014-01-23'),'2;1');

FILE_NAME ('001712-2_0', '2021-06-22T06:11:35+00:00', ('Weidmueller Interface'), ('Weidmueller'), 'CATIA Version 5-6 Release 2016 SP3 HF44', 'CATIA V5 STEP AP214', 'none');

FILE_SCHEMA(('AUTOMOTIVE_DESIGN { 1 0 10303 214 1 1 1 1 }'));

ENDSEC;
DATA;
#5=PRODUCT('0294480000','','',(#2)) ;
#2=PRODUCT_CONTEXT(' ',#1,'mechanical') ;
#1=APPLICATION_CONTEXT('automotive design') ;
#10=PRODUCT_DEFINITION('',' ',#6,#3) ;
#3=PRODUCT_DEFINITION_CONTEXT('part definition',#1,' ') ;
#11=PRODUCT_DEFINITION_SHAPE(' ',' ',#10) ;
#518=MECHANICAL_DESIGN_GEOMETRIC_PRESENTATION_REPRESENTATION(' ',(#29),#16) ;
#519=MECHANICAL_DESIGN_GEOMETRIC_PRESENTATION_REPRESENTATION(' ',(#515),#16) ;
#19=SHAPE_REPRESENTATION(' ',(#18),#16) ;
#18=AXIS2_PLACEMENT_3D(' ',#17,$,$) ;
#35=AXIS2_PLACEMENT_3D('Plane Axis2P3D',#32,#33,#34) ;
#39=AXIS2_PLACEMENT_3D('Circle Axis2P3D',#37,#38,$) ;
#48=AXIS2_PLACEMENT_3D('Circle Axis2P3D',#46,#47,$) ;
#55=AXIS2_PLACEMENT_3D('Circle Axis2P3D',#53,#54,$) ;
#62=AXIS2_PLACEMENT_3D('Circle Axis2P3D',#60,#61,$) ;
#75=AXIS2_PLACEMENT_3D('Torus Axis2P3D',#72,#73,#74) ;
#79=AXIS2_PLACEMENT_3D('Circle Axis2P3D',#77,#78,$) ;
#88=AXIS2_PLACEMENT_3D('Circle Axis2P3D',#86,#87,$) ;
#95=AXIS2_PLACEMENT_3D('Circle Axis2P3D',#93,#94,$) ;
#102=AXIS2_PLACEMENT_3D('Circle Axis2P3D',#100,#101,$) ;
#109=AXIS2_PLACEMENT_3D('Circle Axis2P3D',#107,#108,$) ;
#122=AXIS2_PLACEMENT_3D('Circle Axis2P3D',#120,#121,$) ;
#127=AXIS2_PLACEMENT_3D('Circle Axis2P3D',#125,#126,$) ;
#134=AXIS2_PLACEMENT_3D('Circle Axis2P3D',#132,#133,$) ;
#148=AXIS2_PLACEMENT_3D('Cone Axis2P3D',#145,#146,#147) ;
#159=AXIS2_PLACEMENT_3D('Circle Axis2P3D',#157,#158,$) ;
#178=AXIS2_PLACEMENT_3D('Circle Axis2P3D',#176,#177,$) ;
#191=AXIS2_PLACEMENT_3D('Plane Axis2P3D',#188,#189,#190) ;
#245=AXIS2_PLACEMENT_3D('Circle Axis2P3D',#243,#244,$) ;
#254=AXIS2_PLACEMENT_3D('Circle Axis2P3D',#252,#253,$) ;
#269=AXIS2_PLACEMENT_3D('Plane Axis2P3D',#266,#267,#268) ;
#300=AXIS2_PLACEMENT_3D('Plane Axis2P3D',#297,#298,#299) ;
#324=AXIS2_PLACEMENT_3D('Plane Axis2P3D',#321,#322,#323) ;
#348=AXIS2_PLACEMENT_3D('Plane Axis2P3D',#345,#346,#347) ;
#372=AXIS2_PLACEMENT_3D('Plane Axis2P3D',#369,#370,#371) ;
#396=AXIS2_PLACEMENT_3D('Plane Axis2P3D',#393,#394,#395) ;
#413=AXIS2_PLACEMENT_3D('Cone Axis2P3D',#410,#411,#412) ;
#431=AXIS2_PLACEMENT_3D('Circle Axis2P3D',#429,#430,$) ;
#443=AXIS2_PLACEMENT_3D('Circle Axis2P3D',#441,#442,$) ;
#456=AXIS2_PLACEMENT_3D('Plane Axis2P3D',#453,#454,#455) ;
#470=AXIS2_PLACEMENT_3D('Torus Axis2P3D',#467,#468,#469) ;
#474=AXIS2_PLACEMENT_3D('Circle Axis2P3D',#472,#473,$) ;
#479=AXIS2_PLACEMENT_3D('Circle Axis2P3D',#477,#478,$) ;
#510=AXIS2_PLACEMENT_3D('Achsensystem.1',#507,#508,#509) ;
#17=CARTESIAN_POINT(' ',(0.,0.,0.)) ;
#32=CARTESIAN_POINT('Axis2P3D Location',(5.77315972805E-015,13.5,2.4431703643E-016)) ;
#37=CARTESIAN_POINT('Axis2P3D Location',(1.11950189129E-015,2.,4.5)) ;
#41=CARTESIAN_POINT('Vertex',(-0.000722758070442,2.35956915395,3.84181307858)) ;
#43=CARTESIAN_POINT('Vertex',(-0.000722758070442,2.,3.75)) ;
#46=CARTESIAN_POINT('Axis2P3D Location',(1.11950189129E-015,2.,4.5)) ;
#50=CARTESIAN_POINT('Vertex',(-0.000722758070443,1.64043084605,5.15818692142)) ;
#53=CARTESIAN_POINT('Axis2P3D Location',(1.11950189129E-015,2.,4.5)) ;
#57=CARTESIAN_POINT('Vertex',(-0.000722758070442,2.,5.25)) ;
#60=CARTESIAN_POINT('Axis2P3D Location',(1.11950189129E-015,2.,4.5)) ;
#72=CARTESIAN_POINT('Axis2P3D Location',(0.49,25.,4.5)) ;
#77=CARTESIAN_POINT('Axis2P3D Location',(0.49,25.313606333,3.92594745801)) ;
#81=CARTESIAN_POINT('Vertex',(-0.000722758070431,25.359569154,3.84181307858)) ;
#83=CARTESIAN_POINT('Vertex',(0.516167978121,25.5529905843,3.48775752526)) ;
#86=CARTESIAN_POINT('Axis2P3D Location',(0.516167978121,25.,4.5)) ;
#90=CARTESIAN_POINT('Vertex',(0.516167978121,24.4470094157,5.51224247474)) ;
#93=CARTESIAN_POINT('Axis2P3D Location',(0.49,24.686393667,5.07405254199)) ;
#97=CARTESIAN_POINT('Vertex',(-0.000722758070432,24.640430846,5.15818692142)) ;
#100=CARTESIAN_POINT('Axis2P3D Location',(-0.000722758070432,25.,4.5)) ;
#104=CARTESIAN_POINT('Vertex',(-0.000722758070432,25.,3.75)) ;
#107=CARTESIAN_POINT('Axis2P3D Location',(-0.000722758070431,25.,4.5)) ;
#120=CARTESIAN_POINT('Axis2P3D Location',(0.516167978121,25.,4.5)) ;
#125=CARTESIAN_POINT('Axis2P3D Location',(-0.000722758070431,25.,4.5)) ;
#129=CARTESIAN_POINT('Vertex',(-0.000722758070431,25.,5.25)) ;
#132=CARTESIAN_POINT('Axis2P3D Location',(-0.000722758070432,25.,4.5)) ;
#145=CARTESIAN_POINT('Axis2P3D Location',(2.49,25.,4.5)) ;
#150=CARTESIAN_POINT('Line Origine',(1.50308398906,25.5281936999,3.53314791764)) ;
#154=CARTESIAN_POINT('Vertex',(2.49,25.5033968155,3.57853831002)) ;
#157=CARTESIAN_POINT('Axis2P3D Location',(2.49,25.,4.5)) ;
#161=CARTESIAN_POINT('Vertex',(2.49,24.4966031845,5.42146168998)) ;
#164=CARTESIAN_POINT('Line Origine',(1.50308398906,24.4718063001,5.46685208236)) ;
#176=CARTESIAN_POINT('Axis2P3D Location',(2.49,25.,4.5)) ;
#188=CARTESIAN_POINT('Axis2P3D Location',(2.49,13.5,9.18485099361E-017)) ;
#193=CARTESIAN_POINT('Line Origine',(2.49,25.3218007376,22.5)) ;
#197=CARTESIAN_POINT('Vertex',(2.49,23.6436014753,24.5)) ;
#199=CARTESIAN_POINT('Vertex',(2.49,27.,20.5)) ;
#202=CARTESIAN_POINT('Line Origine',(2.49,27.,10.25)) ;
#206=CARTESIAN_POINT('Vertex',(2.49,27.,9.18485099361E-017)) ;
#209=CARTESIAN_POINT('Line Origine',(2.49,13.5,9.18485099361E-017)) ;
#213=CARTESIAN_POINT('Vertex',(2.49,0.,9.18485099361E-017)) ;
#216=CARTESIAN_POINT('Line Origine',(2.49,-2.69019411015E-031,10.25)) ;
#220=CARTESIAN_POINT('Vertex',(2.49,-5.3803882203E-031,20.5)) ;
#223=CARTESIAN_POINT('Line Origine',(2.49,1.67819926235,22.5)) ;
#227=CARTESIAN_POINT('Vertex',(2.49,3.35639852471,24.5)) ;
#230=CARTESIAN_POINT('Line Origine',(2.49,13.5,24.5)) ;
#243=CARTESIAN_POINT('Axis2P3D Location',(2.49,2.,4.5)) ;
#247=CARTESIAN_POINT('Vertex',(2.49,2.50339681553,3.57853831002)) ;
#249=CARTESIAN_POINT('Vertex',(2.49,1.49660318447,5.42146168998)) ;
#252=CARTESIAN_POINT('Axis2P3D Location',(2.49,2.,4.5)) ;
#266=CARTESIAN_POINT('Axis2P3D Location',(3.99,23.6436014753,24.5)) ;
#271=CARTESIAN_POINT('Line Origine',(3.24,23.6436014753,24.5)) ;
#275=CARTESIAN_POINT('Vertex',(3.99,23.6436014753,24.5)) ;
#278=CARTESIAN_POINT('Line Origine',(3.99,25.3218007376,22.5)) ;
#282=CARTESIAN_POINT('Vertex',(3.99,27.,20.5)) ;
#285=CARTESIAN_POINT('Line Origine',(3.24,27.,20.5)) ;
#297=CARTESIAN_POINT('Axis2P3D Location',(3.99,27.,20.5)) ;
#302=CARTESIAN_POINT('Line Origine',(3.99,27.,10.25)) ;
#306=CARTESIAN_POINT('Vertex',(3.99,27.,0.)) ;
#309=CARTESIAN_POINT('Line Origine',(3.24,27.,4.5924254968E-017)) ;
#321=CARTESIAN_POINT('Axis2P3D Location',(3.99,0.,0.)) ;
#326=CARTESIAN_POINT('Line Origine',(3.99,13.5,0.)) ;
#330=CARTESIAN_POINT('Vertex',(3.99,0.,0.)) ;
#333=CARTESIAN_POINT('Line Origine',(3.24,3.21469784776E-016,4.5924254968E-017)) ;
#345=CARTESIAN_POINT('Axis2P3D Location',(3.99,0.,0.)) ;
#350=CARTESIAN_POINT('Line Origine',(3.99,-2.69019411015E-031,10.25)) ;
#354=CARTESIAN_POINT('Vertex',(3.99,-5.3803882203E-031,20.5)) ;
#357=CARTESIAN_POINT('Line Origine',(3.24,3.21469784776E-016,20.5)) ;
#369=CARTESIAN_POINT('Axis2P3D Location',(3.99,3.35639852471,24.5)) ;
#374=CARTESIAN_POINT('Line Origine',(3.99,1.67819926235,22.5)) ;
#378=CARTESIAN_POINT('Vertex',(3.99,3.35639852471,24.5)) ;
#381=CARTESIAN_POINT('Line Origine',(3.24,3.35639852471,24.5)) ;
#393=CARTESIAN_POINT('Axis2P3D Location',(3.99,23.6436014753,24.5)) ;
#398=CARTESIAN_POINT('Line Origine',(3.99,13.5,24.5)) ;
#410=CARTESIAN_POINT('Axis2P3D Location',(2.49,2.,4.5)) ;
#415=CARTESIAN_POINT('Line Origine',(1.50308398906,1.4718063001,5.46685208236)) ;
#419=CARTESIAN_POINT('Vertex',(0.516167978121,1.44700941572,5.51224247474)) ;
#422=CARTESIAN_POINT('Line Origine',(1.50308398906,2.5281936999,3.53314791764)) ;
#426=CARTESIAN_POINT('Vertex',(0.516167978121,2.55299058428,3.48775752526)) ;
#429=CARTESIAN_POINT('Axis2P3D Location',(0.516167978121,2.,4.5)) ;
#441=CARTESIAN_POINT('Axis2P3D Location',(0.516167978121,2.,4.5)) ;
#453=CARTESIAN_POINT('Axis2P3D Location',(3.99,13.5,0.)) ;
#467=CARTESIAN_POINT('Axis2P3D Location',(0.49,2.,4.5)) ;
#472=CARTESIAN_POINT('Axis2P3D Location',(0.49,1.68639366701,5.07405254199)) ;
#477=CARTESIAN_POINT('Axis2P3D Location',(0.49,2.31360633299,3.92594745801)) ;
#507=CARTESIAN_POINT('Axis2P3D Location',(0.,0.,0.)) ;
#33=DIRECTION('Axis2P3D Direction',(-1.,4.28626379702E-016,6.12323399574E-017)) ;
#34=DIRECTION('Axis2P3D XDirection',(-4.28626379702E-016,-1.,0.)) ;
#38=DIRECTION('Axis2P3D Direction',(-1.,4.28626379702E-016,6.12323399574E-017)) ;
#47=DIRECTION('Axis2P3D Direction',(-1.,4.28626379702E-016,6.12323399574E-017)) ;
#54=DIRECTION('Axis2P3D Direction',(-1.,4.28626379702E-016,6.12323399574E-017)) ;
#61=DIRECTION('Axis2P3D Direction',(-1.,4.28626379702E-016,6.12323399574E-017)) ;
#73=DIRECTION('Axis2P3D Direction',(1.,-4.28626379702E-016,-6.12323399574E-017)) ;
#74=DIRECTION('Axis2P3D XDirection',(2.5458794142E-016,0.479425538604,-0.87758256189)) ;
#78=DIRECTION('Axis2P3D Direction',(-4.05511383956E-016,-0.87758256189,-0.479425538604)) ;
#87=DIRECTION('Axis2P3D Direction',(1.,-4.28626379702E-016,-6.12323399574E-017)) ;
#94=DIRECTION('Axis2P3D Direction',(4.05511383956E-016,0.87758256189,0.479425538604)) ;
#101=DIRECTION('Axis2P3D Direction',(1.,-4.28626379702E-016,-6.12323399574E-017)) ;
#108=DIRECTION('Axis2P3D Direction',(1.,-4.28626379702E-016,-6.12323399574E-017)) ;
#121=DIRECTION('Axis2P3D Direction',(1.,-4.28626379702E-016,-6.12323399574E-017)) ;
#126=DIRECTION('Axis2P3D Direction',(1.,-4.28626379702E-016,-6.12323399574E-017)) ;
#133=DIRECTION('Axis2P3D Direction',(1.,-4.28626379702E-016,-6.12323399574E-017)) ;
#146=DIRECTION('Axis2P3D Direction',(-1.,4.28626379702E-016,6.12323399574E-017)) ;
#147=DIRECTION('Axis2P3D XDirection',(0.,0.479425538604,-0.87758256189)) ;
#151=DIRECTION('Vector Direction',(-0.998629534755,0.0250911940101,-0.0459291225587)) ;
#158=DIRECTION('Axis2P3D Direction',(-1.,4.28626379702E-016,6.12323399574E-017)) ;
#165=DIRECTION('Vector Direction',(-0.998629534755,-0.0250911940101,0.0459291225587)) ;
#177=DIRECTION('Axis2P3D Direction',(-1.,4.28626379702E-016,6.12323399574E-017)) ;
#189=DIRECTION('Axis2P3D Direction',(-1.,4.28626379702E-016,6.12323399574E-017)) ;
#190=DIRECTION('Axis2P3D XDirection',(-4.28626379702E-016,-1.,0.)) ;
#194=DIRECTION('Vector Direction',(2.55144053591E-016,0.642787609687,-0.766044443119)) ;
#203=DIRECTION('Vector Direction',(-6.49886648561E-017,0.,-1.)) ;
#210=DIRECTION('Vector Direction',(4.27641461337E-016,1.,0.)) ;
#217=DIRECTION('Vector Direction',(6.49886648561E-017,-2.62457961966E-032,1.)) ;
#224=DIRECTION('Vector Direction',(-2.55144053591E-016,-0.642787609687,-0.766044443119)) ;
#231=DIRECTION('Vector Direction',(-4.37802304174E-016,-1.,0.)) ;
#244=DIRECTION('Axis2P3D Direction',(-1.,4.28626379702E-016,6.12323399574E-017)) ;
#253=DIRECTION('Axis2P3D Direction',(-1.,4.28626379702E-016,6.12323399574E-017)) ;
#267=DIRECTION('Axis2P3D Direction',(3.67706245781E-016,0.766044443119,0.642787609687)) ;
#268=DIRECTION('Axis2P3D XDirection',(2.28609032293E-016,0.642787609687,-0.766044443119)) ;
#272=DIRECTION('Vector Direction',(-1.,0.,0.)) ;
#279=DIRECTION('Vector Direction',(2.55144053591E-016,0.642787609687,-0.766044443119)) ;
#286=DIRECTION('Vector Direction',(-1.,0.,0.)) ;
#298=DIRECTION('Axis2P3D Direction',(4.28626379702E-016,1.,-5.47382212627E-048)) ;
#299=DIRECTION('Axis2P3D XDirection',(-6.12323399574E-017,2.62457961966E-032,-1.)) ;
#303=DIRECTION('Vector Direction',(-6.49886648561E-017,0.,-1.)) ;
#310=DIRECTION('Vector Direction',(-1.,0.,6.12323399574E-017)) ;
#322=DIRECTION('Axis2P3D Direction',(6.12323399574E-017,-2.62457961966E-032,1.)) ;
#323=DIRECTION('Axis2P3D XDirection',(4.28626379702E-016,1.,0.)) ;
#327=DIRECTION('Vector Direction',(4.27641461337E-016,1.,0.)) ;
#334=DIRECTION('Vector Direction',(-1.,4.28626379702E-016,6.12323399574E-017)) ;
#346=DIRECTION('Axis2P3D Direction',(-4.28626379702E-016,-1.,5.47382212627E-048)) ;
#347=DIRECTION('Axis2P3D XDirection',(6.12323399574E-017,-2.62457961966E-032,1.)) ;
#351=DIRECTION('Vector Direction',(6.49886648561E-017,-2.62457961966E-032,1.)) ;
#358=DIRECTION('Vector Direction',(-1.,4.28626379702E-016,0.)) ;
#370=DIRECTION('Axis2P3D Direction',(2.88987466908E-016,0.766044443119,-0.642787609687)) ;
#371=DIRECTION('Axis2P3D XDirection',(-3.2242241982E-016,-0.642787609687,-0.766044443119)) ;
#375=DIRECTION('Vector Direction',(-3.40192071455E-016,-0.642787609687,-0.766044443119)) ;
#382=DIRECTION('Vector Direction',(-1.,2.96059473233E-016,0.)) ;
#394=DIRECTION('Axis2P3D Direction',(-6.12323399574E-017,2.62457961966E-032,-1.)) ;
#395=DIRECTION('Axis2P3D XDirection',(-4.28626379702E-016,-1.,0.)) ;
#399=DIRECTION('Vector Direction',(-4.37802304174E-016,-1.,0.)) ;
#411=DIRECTION('Axis2P3D Direction',(-1.,4.28626379702E-016,6.12323399574E-017)) ;
#412=DIRECTION('Axis2P3D XDirection',(0.,0.479425538604,-0.87758256189)) ;
#416=DIRECTION('Vector Direction',(-0.998629534755,-0.0250911940101,0.0459291225587)) ;
#423=DIRECTION('Vector Direction',(-0.998629534755,0.0250911940101,-0.0459291225587)) ;
#430=DIRECTION('Axis2P3D Direction',(-1.,4.28626379702E-016,6.12323399574E-017)) ;
#442=DIRECTION('Axis2P3D Direction',(-1.,4.28626379702E-016,6.12323399574E-017)) ;
#454=DIRECTION('Axis2P3D Direction',(-1.,4.28626379702E-016,6.12323399574E-017)) ;
#455=DIRECTION('Axis2P3D XDirection',(-4.28626379702E-016,-1.,0.)) ;
#468=DIRECTION('Axis2P3D Direction',(1.,-4.28626379702E-016,-6.12323399574E-017)) ;
#469=DIRECTION('Axis2P3D XDirection',(2.5458794142E-016,0.479425538604,-0.87758256189)) ;
#473=DIRECTION('Axis2P3D Direction',(4.05511383956E-016,0.87758256189,0.479425538604)) ;
#478=DIRECTION('Axis2P3D Direction',(-4.05511383956E-016,-0.87758256189,-0.479425538604)) ;
#508=DIRECTION('Axis2P3D Direction',(0.,0.,1.)) ;
#509=DIRECTION('Axis2P3D XDirection',(1.,0.,0.)) ;
#30=PRESENTATION_LAYER_ASSIGNMENT('1',' ',(#21)) ;
#8=PRODUCT_RELATED_PRODUCT_CATEGORY('part',$,(#5)) ;
#7=PRODUCT_CATEGORY('part','specification') ;
#29=STYLED_ITEM(' ',(#28),#21) ;
#515=STYLED_ITEM(' ',(#514),#510) ;
#28=PRESENTATION_STYLE_ASSIGNMENT((#27)) ;
#514=PRESENTATION_STYLE_ASSIGNMENT((#513)) ;
#513=CURVE_STYLE(' ',#511,POSITIVE_LENGTH_MEASURE(0.129999995232),#512) ;
#27=SURFACE_STYLE_USAGE(.BOTH.,#26) ;
#26=SURFACE_SIDE_STYLE(' ',(#25)) ;
#25=SURFACE_STYLE_FILL_AREA(#24) ;
#24=FILL_AREA_STYLE(' ',(#23)) ;
#23=FILL_AREA_STYLE_COLOUR(' ',#22) ;
#152=VECTOR('Line Direction',#151,1.) ;
#166=VECTOR('Line Direction',#165,1.) ;
#195=VECTOR('Line Direction',#194,1.) ;
#204=VECTOR('Line Direction',#203,1.) ;
#211=VECTOR('Line Direction',#210,1.) ;
#218=VECTOR('Line Direction',#217,1.) ;
#225=VECTOR('Line Direction',#224,1.) ;
#232=VECTOR('Line Direction',#231,1.) ;
#273=VECTOR('Line Direction',#272,1.) ;
#280=VECTOR('Line Direction',#279,1.) ;
#287=VECTOR('Line Direction',#286,1.) ;
#304=VECTOR('Line Direction',#303,1.) ;
#311=VECTOR('Line Direction',#310,1.) ;
#328=VECTOR('Line Direction',#327,1.) ;
#335=VECTOR('Line Direction',#334,1.) ;
#352=VECTOR('Line Direction',#351,1.) ;
#359=VECTOR('Line Direction',#358,1.) ;
#376=VECTOR('Line Direction',#375,1.) ;
#383=VECTOR('Line Direction',#382,1.) ;
#400=VECTOR('Line Direction',#399,1.) ;
#417=VECTOR('Line Direction',#416,1.) ;
#424=VECTOR('Line Direction',#423,1.) ;
#15=UNCERTAINTY_MEASURE_WITH_UNIT(LENGTH_MEASURE(0.005),#12,'distance_accuracy_value','CONFUSED CURVE UNCERTAINTY') ;
#506=SHAPE_REPRESENTATION_RELATIONSHIP(' ',' ',#19,#505) ;
#66=ORIENTED_EDGE('',*,*,#45,.T.) ;
#67=ORIENTED_EDGE('',*,*,#52,.F.) ;
#68=ORIENTED_EDGE('',*,*,#59,.T.) ;
#69=ORIENTED_EDGE('',*,*,#64,.F.) ;
#113=ORIENTED_EDGE('',*,*,#85,.T.) ;
#114=ORIENTED_EDGE('',*,*,#92,.F.) ;
#115=ORIENTED_EDGE('',*,*,#99,.F.) ;
#116=ORIENTED_EDGE('',*,*,#106,.T.) ;
#117=ORIENTED_EDGE('',*,*,#111,.F.) ;
#138=ORIENTED_EDGE('',*,*,#99,.T.) ;
#139=ORIENTED_EDGE('',*,*,#124,.F.) ;
#140=ORIENTED_EDGE('',*,*,#85,.F.) ;
#141=ORIENTED_EDGE('',*,*,#131,.T.) ;
#142=ORIENTED_EDGE('',*,*,#136,.F.) ;
#170=ORIENTED_EDGE('',*,*,#156,.T.) ;
#171=ORIENTED_EDGE('',*,*,#163,.F.) ;
#172=ORIENTED_EDGE('',*,*,#168,.F.) ;
#173=ORIENTED_EDGE('',*,*,#92,.T.) ;
#182=ORIENTED_EDGE('',*,*,#168,.T.) ;
#183=ORIENTED_EDGE('',*,*,#180,.F.) ;
#184=ORIENTED_EDGE('',*,*,#156,.F.) ;
#185=ORIENTED_EDGE('',*,*,#124,.T.) ;
#236=ORIENTED_EDGE('',*,*,#201,.T.) ;
#237=ORIENTED_EDGE('',*,*,#208,.T.) ;
#238=ORIENTED_EDGE('',*,*,#215,.T.) ;
#239=ORIENTED_EDGE('',*,*,#222,.T.) ;
#240=ORIENTED_EDGE('',*,*,#229,.T.) ;
#241=ORIENTED_EDGE('',*,*,#234,.T.) ;
#258=ORIENTED_EDGE('',*,*,#251,.T.) ;
#259=ORIENTED_EDGE('',*,*,#256,.T.) ;
#262=ORIENTED_EDGE('',*,*,#180,.T.) ;
#263=ORIENTED_EDGE('',*,*,#163,.T.) ;
#291=ORIENTED_EDGE('',*,*,#277,.F.) ;
#292=ORIENTED_EDGE('',*,*,#284,.T.) ;
#293=ORIENTED_EDGE('',*,*,#289,.T.) ;
#294=ORIENTED_EDGE('',*,*,#201,.F.) ;
#315=ORIENTED_EDGE('',*,*,#289,.F.) ;
#316=ORIENTED_EDGE('',*,*,#308,.T.) ;
#317=ORIENTED_EDGE('',*,*,#313,.T.) ;
#318=ORIENTED_EDGE('',*,*,#208,.F.) ;
#339=ORIENTED_EDGE('',*,*,#313,.F.) ;
#340=ORIENTED_EDGE('',*,*,#332,.T.) ;
#341=ORIENTED_EDGE('',*,*,#337,.T.) ;
#342=ORIENTED_EDGE('',*,*,#215,.F.) ;
#363=ORIENTED_EDGE('',*,*,#337,.F.) ;
#364=ORIENTED_EDGE('',*,*,#356,.T.) ;
#365=ORIENTED_EDGE('',*,*,#361,.T.) ;
#366=ORIENTED_EDGE('',*,*,#222,.F.) ;
#387=ORIENTED_EDGE('',*,*,#361,.F.) ;
#388=ORIENTED_EDGE('',*,*,#380,.T.) ;
#389=ORIENTED_EDGE('',*,*,#385,.T.) ;
#390=ORIENTED_EDGE('',*,*,#229,.F.) ;
#404=ORIENTED_EDGE('',*,*,#385,.F.) ;
#405=ORIENTED_EDGE('',*,*,#402,.T.) ;
#406=ORIENTED_EDGE('',*,*,#277,.T.) ;
#407=ORIENTED_EDGE('',*,*,#234,.F.) ;
#435=ORIENTED_EDGE('',*,*,#421,.T.) ;
#436=ORIENTED_EDGE('',*,*,#251,.F.) ;
#437=ORIENTED_EDGE('',*,*,#428,.F.) ;
#438=ORIENTED_EDGE('',*,*,#433,.T.) ;
#447=ORIENTED_EDGE('',*,*,#428,.T.) ;
#448=ORIENTED_EDGE('',*,*,#256,.F.) ;
#449=ORIENTED_EDGE('',*,*,#421,.F.) ;
#450=ORIENTED_EDGE('',*,*,#445,.T.) ;
#459=ORIENTED_EDGE('',*,*,#402,.F.) ;
#460=ORIENTED_EDGE('',*,*,#380,.F.) ;
#461=ORIENTED_EDGE('',*,*,#356,.F.) ;
#462=ORIENTED_EDGE('',*,*,#332,.F.) ;
#463=ORIENTED_EDGE('',*,*,#308,.F.) ;
#464=ORIENTED_EDGE('',*,*,#284,.F.) ;
#483=ORIENTED_EDGE('',*,*,#476,.T.) ;
#484=ORIENTED_EDGE('',*,*,#433,.F.) ;
#485=ORIENTED_EDGE('',*,*,#481,.F.) ;
#486=ORIENTED_EDGE('',*,*,#64,.T.) ;
#487=ORIENTED_EDGE('',*,*,#59,.F.) ;
#491=ORIENTED_EDGE('',*,*,#481,.T.) ;
#492=ORIENTED_EDGE('',*,*,#445,.F.) ;
#493=ORIENTED_EDGE('',*,*,#476,.F.) ;
#494=ORIENTED_EDGE('',*,*,#52,.T.) ;
#495=ORIENTED_EDGE('',*,*,#45,.F.) ;
#499=ORIENTED_EDGE('',*,*,#136,.T.) ;
#500=ORIENTED_EDGE('',*,*,#131,.F.) ;
#501=ORIENTED_EDGE('',*,*,#111,.T.) ;
#502=ORIENTED_EDGE('',*,*,#106,.F.) ;
#260=FACE_BOUND('',#257,.T.) ;
#264=FACE_BOUND('',#261,.T.) ;
#31=CLOSED_SHELL('Closed Shell',(#71,#119,#144,#175,#187,#265,#296,#320,#344,#368,#392,#409,#440,#452,#466,#489,#497,#504)) ;
#505=ADVANCED_BREP_SHAPE_REPRESENTATION('NONE',(#21),#16) ;
#71=ADVANCED_FACE('Hauptk\X2\00F6\X0\rper',(#70),#36,.T.) ;
#119=ADVANCED_FACE('Hauptk\X2\00F6\X0\rper',(#118),#76,.T.) ;
#144=ADVANCED_FACE('Hauptk\X2\00F6\X0\rper',(#143),#76,.T.) ;
#175=ADVANCED_FACE('Hauptk\X2\00F6\X0\rper',(#174),#149,.T.) ;
#187=ADVANCED_FACE('Hauptk\X2\00F6\X0\rper',(#186),#149,.T.) ;
#265=ADVANCED_FACE('Hauptk\X2\00F6\X0\rper',(#242,#260,#264),#192,.T.) ;
#296=ADVANCED_FACE('Hauptk\X2\00F6\X0\rper',(#295),#270,.T.) ;
#320=ADVANCED_FACE('Hauptk\X2\00F6\X0\rper',(#319),#301,.T.) ;
#344=ADVANCED_FACE('Hauptk\X2\00F6\X0\rper',(#343),#325,.F.) ;
#368=ADVANCED_FACE('Hauptk\X2\00F6\X0\rper',(#367),#349,.T.) ;
#392=ADVANCED_FACE('Hauptk\X2\00F6\X0\rper',(#391),#373,.F.) ;
#409=ADVANCED_FACE('Hauptk\X2\00F6\X0\rper',(#408),#397,.F.) ;
#440=ADVANCED_FACE('Hauptk\X2\00F6\X0\rper',(#439),#414,.T.) ;
#452=ADVANCED_FACE('Hauptk\X2\00F6\X0\rper',(#451),#414,.T.) ;
#466=ADVANCED_FACE('Hauptk\X2\00F6\X0\rper',(#465),#457,.F.) ;
#489=ADVANCED_FACE('Hauptk\X2\00F6\X0\rper',(#488),#471,.T.) ;
#497=ADVANCED_FACE('Hauptk\X2\00F6\X0\rper',(#496),#471,.T.) ;
#504=ADVANCED_FACE('Hauptk\X2\00F6\X0\rper',(#503),#36,.T.) ;
#4=APPLICATION_PROTOCOL_DEFINITION('international standard','automotive_design',2001,#1) ;
#21=MANIFOLD_SOLID_BREP('Hauptk\X2\00F6\X0\rper',#31) ;
#40=CIRCLE('generated circle',#39,0.75) ;
#49=CIRCLE('generated circle',#48,0.75) ;
#56=CIRCLE('generated circle',#55,0.75) ;
#63=CIRCLE('generated circle',#62,0.75) ;
#80=CIRCLE('generated circle',#79,0.5) ;
#89=CIRCLE('generated circle',#88,1.15344415294) ;
#96=CIRCLE('generated circle',#95,0.5) ;
#103=CIRCLE('generated circle',#102,0.75) ;
#110=CIRCLE('generated circle',#109,0.75) ;
#123=CIRCLE('generated circle',#122,1.15344415294) ;
#128=CIRCLE('generated circle',#127,0.75) ;
#135=CIRCLE('generated circle',#134,0.75) ;
#160=CIRCLE('generated circle',#159,1.05) ;
#179=CIRCLE('generated circle',#178,1.05) ;
#246=CIRCLE('generated circle',#245,1.05) ;
#255=CIRCLE('generated circle',#254,1.05) ;
#432=CIRCLE('generated circle',#431,1.15344415294) ;
#444=CIRCLE('generated circle',#443,1.15344415294) ;
#475=CIRCLE('generated circle',#474,0.5) ;
#480=CIRCLE('generated circle',#479,0.5) ;
#22=COLOUR_RGB('Colour',0.301960784314,0.501960784314,0.756862745098) ;
#149=CONICAL_SURFACE('Cone',#148,1.05,0.0523598775598) ;
#414=CONICAL_SURFACE('Cone',#413,1.05,0.0523598775598) ;
#516=CONSTRUCTIVE_GEOMETRY_REPRESENTATION('supplemental geometry',(#510),#16) ;
#517=CONSTRUCTIVE_GEOMETRY_REPRESENTATION_RELATIONSHIP('supplemental geometry','',#19,#516) ;
#76=TOROIDAL_SURFACE('homeo Torus',#75,0.654129385567,0.5) ;
#471=TOROIDAL_SURFACE('homeo Torus',#470,0.654129385567,0.5) ;
#512=DRAUGHTING_PRE_DEFINED_COLOUR('white') ;
#511=DRAUGHTING_PRE_DEFINED_CURVE_FONT('continuous') ;
#45=EDGE_CURVE('',#42,#44,#40,.T.) ;
#52=EDGE_CURVE('',#51,#44,#49,.F.) ;
#59=EDGE_CURVE('',#51,#58,#56,.T.) ;
#64=EDGE_CURVE('',#42,#58,#63,.F.) ;
#85=EDGE_CURVE('',#82,#84,#80,.T.) ;
#92=EDGE_CURVE('',#91,#84,#89,.T.) ;
#99=EDGE_CURVE('',#98,#91,#96,.T.) ;
#106=EDGE_CURVE('',#98,#105,#103,.T.) ;
#111=EDGE_CURVE('',#82,#105,#110,.F.) ;
#124=EDGE_CURVE('',#84,#91,#123,.T.) ;
#131=EDGE_CURVE('',#82,#130,#128,.T.) ;
#136=EDGE_CURVE('',#98,#130,#135,.F.) ;
#156=EDGE_CURVE('',#84,#155,#153,.F.) ;
#163=EDGE_CURVE('',#162,#155,#160,.F.) ;
#168=EDGE_CURVE('',#91,#162,#167,.F.) ;
#180=EDGE_CURVE('',#155,#162,#179,.F.) ;
#201=EDGE_CURVE('',#198,#200,#196,.T.) ;
#208=EDGE_CURVE('',#200,#207,#205,.T.) ;
#215=EDGE_CURVE('',#207,#214,#212,.F.) ;
#222=EDGE_CURVE('',#214,#221,#219,.T.) ;
#229=EDGE_CURVE('',#221,#228,#226,.F.) ;
#234=EDGE_CURVE('',#228,#198,#233,.F.) ;
#251=EDGE_CURVE('',#248,#250,#246,.F.) ;
#256=EDGE_CURVE('',#250,#248,#255,.F.) ;
#277=EDGE_CURVE('',#276,#198,#274,.T.) ;
#284=EDGE_CURVE('',#276,#283,#281,.T.) ;
#289=EDGE_CURVE('',#283,#200,#288,.T.) ;
#308=EDGE_CURVE('',#283,#307,#305,.T.) ;
#313=EDGE_CURVE('',#307,#207,#312,.T.) ;
#332=EDGE_CURVE('',#307,#331,#329,.F.) ;
#337=EDGE_CURVE('',#331,#214,#336,.T.) ;
#356=EDGE_CURVE('',#331,#355,#353,.T.) ;
#361=EDGE_CURVE('',#355,#221,#360,.T.) ;
#380=EDGE_CURVE('',#355,#379,#377,.F.) ;
#385=EDGE_CURVE('',#379,#228,#384,.T.) ;
#402=EDGE_CURVE('',#379,#276,#401,.F.) ;
#421=EDGE_CURVE('',#420,#250,#418,.F.) ;
#428=EDGE_CURVE('',#427,#248,#425,.F.) ;
#433=EDGE_CURVE('',#427,#420,#432,.F.) ;
#445=EDGE_CURVE('',#420,#427,#444,.F.) ;
#476=EDGE_CURVE('',#51,#420,#475,.T.) ;
#481=EDGE_CURVE('',#42,#427,#480,.T.) ;
#65=EDGE_LOOP('',(#66,#67,#68,#69)) ;
#112=EDGE_LOOP('',(#113,#114,#115,#116,#117)) ;
#137=EDGE_LOOP('',(#138,#139,#140,#141,#142)) ;
#169=EDGE_LOOP('',(#170,#171,#172,#173)) ;
#181=EDGE_LOOP('',(#182,#183,#184,#185)) ;
#235=EDGE_LOOP('',(#236,#237,#238,#239,#240,#241)) ;
#257=EDGE_LOOP('',(#258,#259)) ;
#261=EDGE_LOOP('',(#262,#263)) ;
#290=EDGE_LOOP('',(#291,#292,#293,#294)) ;
#314=EDGE_LOOP('',(#315,#316,#317,#318)) ;
#338=EDGE_LOOP('',(#339,#340,#341,#342)) ;
#362=EDGE_LOOP('',(#363,#364,#365,#366)) ;
#386=EDGE_LOOP('',(#387,#388,#389,#390)) ;
#403=EDGE_LOOP('',(#404,#405,#406,#407)) ;
#434=EDGE_LOOP('',(#435,#436,#437,#438)) ;
#446=EDGE_LOOP('',(#447,#448,#449,#450)) ;
#458=EDGE_LOOP('',(#459,#460,#461,#462,#463,#464)) ;
#482=EDGE_LOOP('',(#483,#484,#485,#486,#487)) ;
#490=EDGE_LOOP('',(#491,#492,#493,#494,#495)) ;
#498=EDGE_LOOP('',(#499,#500,#501,#502)) ;
#70=FACE_OUTER_BOUND('',#65,.T.) ;
#118=FACE_OUTER_BOUND('',#112,.T.) ;
#143=FACE_OUTER_BOUND('',#137,.T.) ;
#174=FACE_OUTER_BOUND('',#169,.T.) ;
#186=FACE_OUTER_BOUND('',#181,.T.) ;
#242=FACE_OUTER_BOUND('',#235,.T.) ;
#295=FACE_OUTER_BOUND('',#290,.T.) ;
#319=FACE_OUTER_BOUND('',#314,.T.) ;
#343=FACE_OUTER_BOUND('',#338,.T.) ;
#367=FACE_OUTER_BOUND('',#362,.T.) ;
#391=FACE_OUTER_BOUND('',#386,.T.) ;
#408=FACE_OUTER_BOUND('',#403,.T.) ;
#439=FACE_OUTER_BOUND('',#434,.T.) ;
#451=FACE_OUTER_BOUND('',#446,.T.) ;
#465=FACE_OUTER_BOUND('',#458,.T.) ;
#488=FACE_OUTER_BOUND('',#482,.T.) ;
#496=FACE_OUTER_BOUND('',#490,.T.) ;
#503=FACE_OUTER_BOUND('',#498,.T.) ;
#153=LINE('Line',#150,#152) ;
#167=LINE('Line',#164,#166) ;
#196=LINE('Line',#193,#195) ;
#205=LINE('Line',#202,#204) ;
#212=LINE('Line',#209,#211) ;
#219=LINE('Line',#216,#218) ;
#226=LINE('Line',#223,#225) ;
#233=LINE('Line',#230,#232) ;
#274=LINE('Line',#271,#273) ;
#281=LINE('Line',#278,#280) ;
#288=LINE('Line',#285,#287) ;
#305=LINE('Line',#302,#304) ;
#312=LINE('Line',#309,#311) ;
#329=LINE('Line',#326,#328) ;
#336=LINE('Line',#333,#335) ;
#353=LINE('Line',#350,#352) ;
#360=LINE('Line',#357,#359) ;
#377=LINE('Line',#374,#376) ;
#384=LINE('Line',#381,#383) ;
#401=LINE('Line',#398,#400) ;
#418=LINE('Line',#415,#417) ;
#425=LINE('Line',#422,#424) ;
#36=PLANE('',#35) ;
#192=PLANE('',#191) ;
#270=PLANE('',#269) ;
#301=PLANE('',#300) ;
#325=PLANE('',#324) ;
#349=PLANE('',#348) ;
#373=PLANE('',#372) ;
#397=PLANE('',#396) ;
#457=PLANE('',#456) ;
#9=PRODUCT_CATEGORY_RELATIONSHIP(' ',' ',#7,#8) ;
#6=PRODUCT_DEFINITION_FORMATION_WITH_SPECIFIED_SOURCE('',' ',#5,.NOT_KNOWN.) ;
#20=SHAPE_DEFINITION_REPRESENTATION(#11,#19) ;
#42=VERTEX_POINT('',#41) ;
#44=VERTEX_POINT('',#43) ;
#51=VERTEX_POINT('',#50) ;
#58=VERTEX_POINT('',#57) ;
#82=VERTEX_POINT('',#81) ;
#84=VERTEX_POINT('',#83) ;
#91=VERTEX_POINT('',#90) ;
#98=VERTEX_POINT('',#97) ;
#105=VERTEX_POINT('',#104) ;
#130=VERTEX_POINT('',#129) ;
#155=VERTEX_POINT('',#154) ;
#162=VERTEX_POINT('',#161) ;
#198=VERTEX_POINT('',#197) ;
#200=VERTEX_POINT('',#199) ;
#207=VERTEX_POINT('',#206) ;
#214=VERTEX_POINT('',#213) ;
#221=VERTEX_POINT('',#220) ;
#228=VERTEX_POINT('',#227) ;
#248=VERTEX_POINT('',#247) ;
#250=VERTEX_POINT('',#249) ;
#276=VERTEX_POINT('',#275) ;
#283=VERTEX_POINT('',#282) ;
#307=VERTEX_POINT('',#306) ;
#331=VERTEX_POINT('',#330) ;
#355=VERTEX_POINT('',#354) ;
#379=VERTEX_POINT('',#378) ;
#420=VERTEX_POINT('',#419) ;
#427=VERTEX_POINT('',#426) ;
#12=(LENGTH_UNIT()NAMED_UNIT(*)SI_UNIT(.MILLI.,.METRE.)) ;
#13=(NAMED_UNIT(*)PLANE_ANGLE_UNIT()SI_UNIT($,.RADIAN.)) ;
#14=(NAMED_UNIT(*)SI_UNIT($,.STERADIAN.)SOLID_ANGLE_UNIT()) ;
#16=(GEOMETRIC_REPRESENTATION_CONTEXT(3)GLOBAL_UNCERTAINTY_ASSIGNED_CONTEXT((#15))GLOBAL_UNIT_ASSIGNED_CONTEXT((#12,#13,#14))REPRESENTATION_CONTEXT(' ',' ')) ;
ENDSEC;
END-ISO-10303-21;
