ISO-10303-21;
HEADER;
FILE_DESCRIPTION(('CATIA V5R22 STEP214','CAx-IF Rec.Pracs.--- Model Styling and Organization---1.4--- 2014-01-23'),'2;1');

FILE_NAME ('034647-3_0', '2021-06-22T06:12:40+00:00', ('Weidmueller Interface'), ('Weidmueller'), 'CATIA Version 5-6 Release 2016 SP3 HF44', 'CATIA V5 STEP AP214', 'none');

FILE_SCHEMA(('AUTOMOTIVE_DESIGN { 1 0 10303 214 1 1 1 1 }'));

ENDSEC;
DATA;
#5=PRODUCT('9502630000','','',(#2)) ;
#2=PRODUCT_CONTEXT(' ',#1,'mechanical') ;
#1=APPLICATION_CONTEXT('automotive design') ;
#10=PRODUCT_DEFINITION('',' ',#6,#3) ;
#3=PRODUCT_DEFINITION_CONTEXT('part definition',#1,' ') ;
#11=PRODUCT_DEFINITION_SHAPE(' ',' ',#10) ;
#489=MECHANICAL_DESIGN_GEOMETRIC_PRESENTATION_REPRESENTATION(' ',(#29),#16) ;
#490=MECHANICAL_DESIGN_GEOMETRIC_PRESENTATION_REPRESENTATION(' ',(#486),#16) ;
#19=SHAPE_REPRESENTATION(' ',(#18),#16) ;
#18=AXIS2_PLACEMENT_3D(' ',#17,$,$) ;
#35=AXIS2_PLACEMENT_3D('Plane Axis2P3D',#32,#33,#34) ;
#75=AXIS2_PLACEMENT_3D('Plane Axis2P3D',#72,#73,#74) ;
#118=AXIS2_PLACEMENT_3D('Plane Axis2P3D',#115,#116,#117) ;
#157=AXIS2_PLACEMENT_3D('Plane Axis2P3D',#154,#155,#156) ;
#193=AXIS2_PLACEMENT_3D('Plane Axis2P3D',#190,#191,#192) ;
#226=AXIS2_PLACEMENT_3D('Cone Axis2P3D',#223,#224,#225) ;
#230=AXIS2_PLACEMENT_3D('Circle Axis2P3D',#228,#229,$) ;
#243=AXIS2_PLACEMENT_3D('Plane Axis2P3D',#240,#241,#242) ;
#297=AXIS2_PLACEMENT_3D('Circle Axis2P3D',#295,#296,$) ;
#310=AXIS2_PLACEMENT_3D('Plane Axis2P3D',#307,#308,#309) ;
#341=AXIS2_PLACEMENT_3D('Plane Axis2P3D',#338,#339,#340) ;
#365=AXIS2_PLACEMENT_3D('Plane Axis2P3D',#362,#363,#364) ;
#389=AXIS2_PLACEMENT_3D('Plane Axis2P3D',#386,#387,#388) ;
#413=AXIS2_PLACEMENT_3D('Plane Axis2P3D',#410,#411,#412) ;
#439=AXIS2_PLACEMENT_3D('Plane Axis2P3D',#436,#437,#438) ;
#456=AXIS2_PLACEMENT_3D('Plane Axis2P3D',#453,#454,#455) ;
#468=AXIS2_PLACEMENT_3D('Cone Axis2P3D',#465,#466,#467) ;
#482=AXIS2_PLACEMENT_3D('Achsensystem.1',#479,#480,#481) ;
#17=CARTESIAN_POINT(' ',(0.,0.,0.)) ;
#32=CARTESIAN_POINT('Axis2P3D Location',(2.44249065418E-015,20.,5.62409918498E-033)) ;
#37=CARTESIAN_POINT('Line Origine',(5.2591841351E-016,4.35,3.15)) ;
#41=CARTESIAN_POINT('Vertex',(5.2591841351E-016,4.35,4.01876700471)) ;
#43=CARTESIAN_POINT('Vertex',(5.2591841351E-016,4.35,2.28123299529)) ;
#46=CARTESIAN_POINT('Line Origine',(2.44249065418E-015,20.,4.01876700471)) ;
#50=CARTESIAN_POINT('Vertex',(4.35906289484E-015,35.65,4.01876700471)) ;
#53=CARTESIAN_POINT('Line Origine',(4.35906289484E-015,35.65,3.15)) ;
#57=CARTESIAN_POINT('Vertex',(4.35906289484E-015,35.65,2.28123299529)) ;
#60=CARTESIAN_POINT('Line Origine',(2.44249065418E-015,20.,2.28123299529)) ;
#72=CARTESIAN_POINT('Axis2P3D Location',(6.66133814775E-016,4.35,3.15)) ;
#77=CARTESIAN_POINT('Line Origine',(0.116576914539,4.1,2.27103383684)) ;
#81=CARTESIAN_POINT('Vertex',(0.233153829077,3.85,2.26083467839)) ;
#85=CARTESIAN_POINT('Control Point',(0.233153829077,3.85,2.26083467839)) ;
#86=CARTESIAN_POINT('Control Point',(0.290980431658,3.72599045058,2.25577550621)) ;
#87=CARTESIAN_POINT('Control Point',(0.349629522618,3.60021706913,2.27226348419)) ;
#88=CARTESIAN_POINT('Control Point',(0.406768081655,3.47768303385,2.31112043408)) ;
#89=CARTESIAN_POINT('Control Point',(0.529974745153,3.21346549132,2.45112356879)) ;
#90=CARTESIAN_POINT('Control Point',(0.619183357759,3.02215700422,2.69014619383)) ;
#91=CARTESIAN_POINT('Control Point',(0.653789925283,2.94794298067,2.85117867967)) ;
#92=CARTESIAN_POINT('Control Point',(0.684069646718,2.8830079085,3.19753507461)) ;
#93=CARTESIAN_POINT('Control Point',(0.637562267714,2.98274330463,3.53526533645)) ;
#94=CARTESIAN_POINT('Control Point',(0.595397398136,3.07316615924,3.68808371542)) ;
#95=CARTESIAN_POINT('Control Point',(0.501511734227,3.27450461523,3.8927141452)) ;
#96=CARTESIAN_POINT('Control Point',(0.382169211976,3.53043548011,4.0041807093)) ;
#97=CARTESIAN_POINT('Control Point',(0.332864607353,3.63616954594,4.03201331376)) ;
#98=CARTESIAN_POINT('Control Point',(0.282707229065,3.74373239079,4.04350068235)) ;
#99=CARTESIAN_POINT('Control Point',(0.233153829077,3.85,4.03916532161)) ;
#100=CARTESIAN_POINT('Vertex',(0.233153829078,3.85,4.03916532161)) ;
#103=CARTESIAN_POINT('Line Origine',(0.116576914539,4.1,4.02896616316)) ;
#115=CARTESIAN_POINT('Axis2P3D Location',(1.5,44.01,2.15)) ;
#121=CARTESIAN_POINT('Control Point',(4.13558076673E-015,35.65,2.28123299529)) ;
#122=CARTESIAN_POINT('Control Point',(0.233153829078,36.15,2.26083467839)) ;
#123=CARTESIAN_POINT('Vertex',(0.233153829077,36.15,2.26083467839)) ;
#126=CARTESIAN_POINT('Line Origine',(0.75,36.15,2.21561649764)) ;
#130=CARTESIAN_POINT('Vertex',(1.5,36.15,2.15)) ;
#133=CARTESIAN_POINT('Line Origine',(1.5,20.,2.15)) ;
#137=CARTESIAN_POINT('Vertex',(1.5,3.85,2.15)) ;
#140=CARTESIAN_POINT('Line Origine',(0.75,3.85,2.21561649764)) ;
#154=CARTESIAN_POINT('Axis2P3D Location',(4.21884749358E-015,35.65,3.15)) ;
#159=CARTESIAN_POINT('Line Origine',(0.116576914539,35.9,4.02896616316)) ;
#163=CARTESIAN_POINT('Vertex',(0.233153829077,36.15,4.03916532161)) ;
#167=CARTESIAN_POINT('Control Point',(0.233153829077,36.15,4.03916532161)) ;
#168=CARTESIAN_POINT('Control Point',(0.290980431655,36.2740095494,4.04422449379)) ;
#169=CARTESIAN_POINT('Control Point',(0.349629522617,36.3997829309,4.02773651582)) ;
#170=CARTESIAN_POINT('Control Point',(0.406768081661,36.5223169662,3.98887956591)) ;
#171=CARTESIAN_POINT('Control Point',(0.529974745149,36.7865345087,3.84887643121)) ;
#172=CARTESIAN_POINT('Control Point',(0.619183357757,36.9778429958,3.60985380618)) ;
#173=CARTESIAN_POINT('Control Point',(0.653789925285,37.0520570193,3.44882132033)) ;
#174=CARTESIAN_POINT('Control Point',(0.684069646716,37.1169920915,3.10246492539)) ;
#175=CARTESIAN_POINT('Control Point',(0.637562267718,37.0172566954,2.76473466359)) ;
#176=CARTESIAN_POINT('Control Point',(0.59539739813,36.9268338407,2.61191628452)) ;
#177=CARTESIAN_POINT('Control Point',(0.501511734219,36.7254953847,2.40728585482)) ;
#178=CARTESIAN_POINT('Control Point',(0.382169211977,36.4695645199,2.29581929068)) ;
#179=CARTESIAN_POINT('Control Point',(0.33286460735,36.3638304541,2.26798668624)) ;
#180=CARTESIAN_POINT('Control Point',(0.282707229065,36.2562676092,2.25649931765)) ;
#181=CARTESIAN_POINT('Control Point',(0.233153829077,36.15,2.26083467839)) ;
#190=CARTESIAN_POINT('Axis2P3D Location',(1.5,-4.01,4.15)) ;
#195=CARTESIAN_POINT('Line Origine',(0.75,3.85,4.08438350236)) ;
#199=CARTESIAN_POINT('Vertex',(1.5,3.85,4.15)) ;
#202=CARTESIAN_POINT('Line Origine',(1.5,20.,4.15)) ;
#206=CARTESIAN_POINT('Vertex',(1.5,36.15,4.15)) ;
#209=CARTESIAN_POINT('Line Origine',(0.75,36.15,4.08438350236)) ;
#223=CARTESIAN_POINT('Axis2P3D Location',(-9.93005230277,3.85,3.15)) ;
#228=CARTESIAN_POINT('Axis2P3D Location',(1.5,3.85,3.15)) ;
#240=CARTESIAN_POINT('Axis2P3D Location',(1.5,20.,0.)) ;
#245=CARTESIAN_POINT('Line Origine',(1.5,37.,34.)) ;
#249=CARTESIAN_POINT('Vertex',(1.5,34.,37.)) ;
#251=CARTESIAN_POINT('Vertex',(1.5,40.,31.)) ;
#254=CARTESIAN_POINT('Line Origine',(1.5,40.,15.5)) ;
#258=CARTESIAN_POINT('Vertex',(1.5,40.,0.)) ;
#261=CARTESIAN_POINT('Line Origine',(1.5,20.,0.)) ;
#265=CARTESIAN_POINT('Vertex',(1.5,0.,0.)) ;
#268=CARTESIAN_POINT('Line Origine',(1.5,-1.06756793507E-047,15.5)) ;
#272=CARTESIAN_POINT('Vertex',(1.5,-2.13513587014E-047,31.)) ;
#275=CARTESIAN_POINT('Line Origine',(1.5,3.,34.)) ;
#279=CARTESIAN_POINT('Vertex',(1.5,6.,37.)) ;
#282=CARTESIAN_POINT('Line Origine',(1.5,20.,37.)) ;
#295=CARTESIAN_POINT('Axis2P3D Location',(1.5,36.15,3.15)) ;
#307=CARTESIAN_POINT('Axis2P3D Location',(1.5,0.,31.)) ;
#312=CARTESIAN_POINT('Line Origine',(4.5,3.,34.)) ;
#316=CARTESIAN_POINT('Vertex',(4.5,-2.13513587014E-047,31.)) ;
#318=CARTESIAN_POINT('Vertex',(4.5,6.,37.)) ;
#321=CARTESIAN_POINT('Line Origine',(3.,6.,37.)) ;
#326=CARTESIAN_POINT('Line Origine',(3.,-1.83697019872E-016,31.)) ;
#338=CARTESIAN_POINT('Axis2P3D Location',(1.5,6.,37.)) ;
#343=CARTESIAN_POINT('Line Origine',(4.5,20.,37.)) ;
#347=CARTESIAN_POINT('Vertex',(4.5,34.,37.)) ;
#350=CARTESIAN_POINT('Line Origine',(3.,34.,37.)) ;
#362=CARTESIAN_POINT('Axis2P3D Location',(1.5,34.,37.)) ;
#367=CARTESIAN_POINT('Line Origine',(4.5,37.,34.)) ;
#371=CARTESIAN_POINT('Vertex',(4.5,40.,31.)) ;
#374=CARTESIAN_POINT('Line Origine',(3.,40.,31.)) ;
#386=CARTESIAN_POINT('Axis2P3D Location',(1.5,40.,31.)) ;
#391=CARTESIAN_POINT('Line Origine',(4.5,40.,15.5)) ;
#395=CARTESIAN_POINT('Vertex',(4.5,40.,-1.124819837E-032)) ;
#398=CARTESIAN_POINT('Line Origine',(3.,40.,-5.62409918498E-033)) ;
#410=CARTESIAN_POINT('Axis2P3D Location',(4.5,20.,-1.124819837E-032)) ;
#415=CARTESIAN_POINT('Line Origine',(4.5,-1.06756793507E-047,15.5)) ;
#419=CARTESIAN_POINT('Vertex',(4.5,0.,-1.124819837E-032)) ;
#422=CARTESIAN_POINT('Line Origine',(4.5,20.,-1.124819837E-032)) ;
#436=CARTESIAN_POINT('Axis2P3D Location',(1.5,0.,0.)) ;
#441=CARTESIAN_POINT('Line Origine',(3.,-1.83697019872E-016,-5.62409918498E-033)) ;
#453=CARTESIAN_POINT('Axis2P3D Location',(1.5,40.,0.)) ;
#465=CARTESIAN_POINT('Axis2P3D Location',(-9.93005230277,36.15,3.15)) ;
#479=CARTESIAN_POINT('Axis2P3D Location',(0.,0.,0.)) ;
#33=DIRECTION('Axis2P3D Direction',(-1.,1.22464679915E-016,3.74939945665E-033)) ;
#34=DIRECTION('Axis2P3D XDirection',(-1.22464679915E-016,-1.,0.)) ;
#38=DIRECTION('Vector Direction',(0.,0.,-1.)) ;
#47=DIRECTION('Vector Direction',(1.22464679915E-016,1.,0.)) ;
#54=DIRECTION('Vector Direction',(0.,0.,-1.)) ;
#61=DIRECTION('Vector Direction',(-1.22464679915E-016,-1.,0.)) ;
#73=DIRECTION('Axis2P3D Direction',(0.906307787037,0.422618261741,-3.39810992428E-033)) ;
#74=DIRECTION('Axis2P3D XDirection',(0.422618261741,-0.906307787037,0.)) ;
#78=DIRECTION('Vector Direction',(0.42232967702,-0.905688915106,-0.0369490590098)) ;
#104=DIRECTION('Vector Direction',(0.42232967702,-0.905688915106,0.0369490590098)) ;
#116=DIRECTION('Axis2P3D Direction',(-0.0871557427477,1.06735001383E-017,-0.996194698092)) ;
#117=DIRECTION('Axis2P3D XDirection',(-1.22464679915E-016,-1.,0.)) ;
#127=DIRECTION('Vector Direction',(-0.996194698092,0.,0.0871557427477)) ;
#134=DIRECTION('Vector Direction',(-1.2022406764E-016,-1.,0.)) ;
#141=DIRECTION('Vector Direction',(-0.996194698092,0.,0.0871557427477)) ;
#155=DIRECTION('Axis2P3D Direction',(-0.906307787037,0.422618261741,3.39810992428E-033)) ;
#156=DIRECTION('Axis2P3D XDirection',(0.422618261741,0.906307787037,0.)) ;
#160=DIRECTION('Vector Direction',(0.42232967702,0.905688915106,0.0369490590098)) ;
#191=DIRECTION('Axis2P3D Direction',(-0.0871557427477,1.06735001383E-017,0.996194698092)) ;
#192=DIRECTION('Axis2P3D XDirection',(1.22464679915E-016,1.,0.)) ;
#196=DIRECTION('Vector Direction',(-0.996194698092,0.,-0.0871557427477)) ;
#203=DIRECTION('Vector Direction',(1.2022406764E-016,1.,0.)) ;
#210=DIRECTION('Vector Direction',(-0.996194698092,0.,-0.0871557427477)) ;
#224=DIRECTION('Axis2P3D Direction',(1.,3.7773147894E-014,-2.63492931178E-014)) ;
#225=DIRECTION('Axis2P3D XDirection',(-4.27429126415E-014,0.587785252292,-0.809016994375)) ;
#229=DIRECTION('Axis2P3D Direction',(-1.,-1.21507022961E-014,-8.91697776138E-015)) ;
#241=DIRECTION('Axis2P3D Direction',(-1.,1.22464679915E-016,3.74939945665E-033)) ;
#242=DIRECTION('Axis2P3D XDirection',(-1.22464679915E-016,-1.,0.)) ;
#246=DIRECTION('Vector Direction',(7.85046229342E-017,0.707106781187,-0.707106781187)) ;
#255=DIRECTION('Vector Direction',(0.,0.,-1.)) ;
#262=DIRECTION('Vector Direction',(-1.22124532709E-016,-1.,0.)) ;
#269=DIRECTION('Vector Direction',(0.,-6.88753506498E-049,1.)) ;
#276=DIRECTION('Vector Direction',(7.85046229342E-017,0.707106781187,0.707106781187)) ;
#283=DIRECTION('Vector Direction',(1.26882631386E-016,1.,0.)) ;
#296=DIRECTION('Axis2P3D Direction',(-1.,1.22464679915E-016,3.74939945665E-033)) ;
#308=DIRECTION('Axis2P3D Direction',(8.65956056235E-017,0.707106781187,-0.707106781187)) ;
#309=DIRECTION('Axis2P3D XDirection',(8.65956056235E-017,0.707106781187,0.707106781187)) ;
#313=DIRECTION('Vector Direction',(1.04672830579E-016,0.707106781187,0.707106781187)) ;
#322=DIRECTION('Vector Direction',(1.,0.,0.)) ;
#327=DIRECTION('Vector Direction',(1.,-1.22464679915E-016,0.)) ;
#339=DIRECTION('Axis2P3D Direction',(-3.74939945665E-033,4.59169004332E-049,-1.)) ;
#340=DIRECTION('Axis2P3D XDirection',(1.22464679915E-016,1.,0.)) ;
#344=DIRECTION('Vector Direction',(9.51619735393E-017,1.,0.)) ;
#351=DIRECTION('Vector Direction',(1.,0.,0.)) ;
#363=DIRECTION('Axis2P3D Direction',(-8.65956056235E-017,-0.707106781187,-0.707106781187)) ;
#364=DIRECTION('Axis2P3D XDirection',(8.65956056235E-017,0.707106781187,-0.707106781187)) ;
#368=DIRECTION('Vector Direction',(1.04672830579E-016,0.707106781187,-0.707106781187)) ;
#375=DIRECTION('Vector Direction',(1.,0.,0.)) ;
#387=DIRECTION('Axis2P3D Direction',(-1.22464679915E-016,-1.,-2.29584502166E-049)) ;
#388=DIRECTION('Axis2P3D XDirection',(-3.74939945665E-033,6.88753506498E-049,-1.)) ;
#392=DIRECTION('Vector Direction',(0.,0.,-1.)) ;
#399=DIRECTION('Vector Direction',(1.,0.,-3.74939945665E-033)) ;
#411=DIRECTION('Axis2P3D Direction',(-1.,1.22464679915E-016,3.74939945665E-033)) ;
#412=DIRECTION('Axis2P3D XDirection',(-1.22464679915E-016,-1.,0.)) ;
#416=DIRECTION('Vector Direction',(0.,-6.88753506498E-049,1.)) ;
#423=DIRECTION('Vector Direction',(-1.33226762955E-016,-1.,0.)) ;
#437=DIRECTION('Axis2P3D Direction',(1.22464679915E-016,1.,2.29584502166E-049)) ;
#438=DIRECTION('Axis2P3D XDirection',(3.74939945665E-033,-6.88753506498E-049,1.)) ;
#442=DIRECTION('Vector Direction',(1.,-1.22464679915E-016,-3.74939945665E-033)) ;
#454=DIRECTION('Axis2P3D Direction',(3.74939945665E-033,-4.59169004332E-049,1.)) ;
#455=DIRECTION('Axis2P3D XDirection',(-1.22464679915E-016,-1.,0.)) ;
#466=DIRECTION('Axis2P3D Direction',(1.,-3.80180772538E-014,2.6645352591E-014)) ;
#467=DIRECTION('Axis2P3D XDirection',(-4.27429126415E-014,-0.587785252292,0.809016994375)) ;
#480=DIRECTION('Axis2P3D Direction',(0.,0.,1.)) ;
#481=DIRECTION('Axis2P3D XDirection',(1.,0.,0.)) ;
#30=PRESENTATION_LAYER_ASSIGNMENT('1',' ',(#21)) ;
#8=PRODUCT_RELATED_PRODUCT_CATEGORY('part',$,(#5)) ;
#7=PRODUCT_CATEGORY('part','specification') ;
#29=STYLED_ITEM(' ',(#28),#21) ;
#486=STYLED_ITEM(' ',(#485),#482) ;
#28=PRESENTATION_STYLE_ASSIGNMENT((#27)) ;
#485=PRESENTATION_STYLE_ASSIGNMENT((#484)) ;
#484=CURVE_STYLE(' ',#483,POSITIVE_LENGTH_MEASURE(0.129999995232),#22) ;
#27=SURFACE_STYLE_USAGE(.BOTH.,#26) ;
#26=SURFACE_SIDE_STYLE(' ',(#25)) ;
#25=SURFACE_STYLE_FILL_AREA(#24) ;
#24=FILL_AREA_STYLE(' ',(#23)) ;
#23=FILL_AREA_STYLE_COLOUR(' ',#22) ;
#39=VECTOR('Line Direction',#38,1.) ;
#48=VECTOR('Line Direction',#47,1.) ;
#55=VECTOR('Line Direction',#54,1.) ;
#62=VECTOR('Line Direction',#61,1.) ;
#79=VECTOR('Line Direction',#78,1.) ;
#105=VECTOR('Line Direction',#104,1.) ;
#128=VECTOR('Line Direction',#127,1.) ;
#135=VECTOR('Line Direction',#134,1.) ;
#142=VECTOR('Line Direction',#141,1.) ;
#161=VECTOR('Line Direction',#160,1.) ;
#197=VECTOR('Line Direction',#196,1.) ;
#204=VECTOR('Line Direction',#203,1.) ;
#211=VECTOR('Line Direction',#210,1.) ;
#247=VECTOR('Line Direction',#246,1.) ;
#256=VECTOR('Line Direction',#255,1.) ;
#263=VECTOR('Line Direction',#262,1.) ;
#270=VECTOR('Line Direction',#269,1.) ;
#277=VECTOR('Line Direction',#276,1.) ;
#284=VECTOR('Line Direction',#283,1.) ;
#314=VECTOR('Line Direction',#313,1.) ;
#323=VECTOR('Line Direction',#322,1.) ;
#328=VECTOR('Line Direction',#327,1.) ;
#345=VECTOR('Line Direction',#344,1.) ;
#352=VECTOR('Line Direction',#351,1.) ;
#369=VECTOR('Line Direction',#368,1.) ;
#376=VECTOR('Line Direction',#375,1.) ;
#393=VECTOR('Line Direction',#392,1.) ;
#400=VECTOR('Line Direction',#399,1.) ;
#417=VECTOR('Line Direction',#416,1.) ;
#424=VECTOR('Line Direction',#423,1.) ;
#443=VECTOR('Line Direction',#442,1.) ;
#15=UNCERTAINTY_MEASURE_WITH_UNIT(LENGTH_MEASURE(0.005),#12,'distance_accuracy_value','CONFUSED CURVE UNCERTAINTY') ;
#478=SHAPE_REPRESENTATION_RELATIONSHIP(' ',' ',#19,#477) ;
#66=ORIENTED_EDGE('',*,*,#45,.F.) ;
#67=ORIENTED_EDGE('',*,*,#52,.T.) ;
#68=ORIENTED_EDGE('',*,*,#59,.T.) ;
#69=ORIENTED_EDGE('',*,*,#64,.T.) ;
#109=ORIENTED_EDGE('',*,*,#83,.T.) ;
#110=ORIENTED_EDGE('',*,*,#102,.T.) ;
#111=ORIENTED_EDGE('',*,*,#107,.F.) ;
#112=ORIENTED_EDGE('',*,*,#45,.T.) ;
#146=ORIENTED_EDGE('',*,*,#83,.F.) ;
#147=ORIENTED_EDGE('',*,*,#64,.F.) ;
#148=ORIENTED_EDGE('',*,*,#125,.T.) ;
#149=ORIENTED_EDGE('',*,*,#132,.T.) ;
#150=ORIENTED_EDGE('',*,*,#139,.T.) ;
#151=ORIENTED_EDGE('',*,*,#144,.F.) ;
#184=ORIENTED_EDGE('',*,*,#59,.F.) ;
#185=ORIENTED_EDGE('',*,*,#165,.T.) ;
#186=ORIENTED_EDGE('',*,*,#182,.T.) ;
#187=ORIENTED_EDGE('',*,*,#125,.F.) ;
#215=ORIENTED_EDGE('',*,*,#165,.F.) ;
#216=ORIENTED_EDGE('',*,*,#52,.F.) ;
#217=ORIENTED_EDGE('',*,*,#107,.T.) ;
#218=ORIENTED_EDGE('',*,*,#201,.T.) ;
#219=ORIENTED_EDGE('',*,*,#208,.T.) ;
#220=ORIENTED_EDGE('',*,*,#213,.F.) ;
#234=ORIENTED_EDGE('',*,*,#102,.F.) ;
#235=ORIENTED_EDGE('',*,*,#144,.T.) ;
#236=ORIENTED_EDGE('',*,*,#232,.T.) ;
#237=ORIENTED_EDGE('',*,*,#201,.F.) ;
#288=ORIENTED_EDGE('',*,*,#253,.T.) ;
#289=ORIENTED_EDGE('',*,*,#260,.T.) ;
#290=ORIENTED_EDGE('',*,*,#267,.T.) ;
#291=ORIENTED_EDGE('',*,*,#274,.T.) ;
#292=ORIENTED_EDGE('',*,*,#281,.T.) ;
#293=ORIENTED_EDGE('',*,*,#286,.T.) ;
#301=ORIENTED_EDGE('',*,*,#299,.F.) ;
#302=ORIENTED_EDGE('',*,*,#208,.F.) ;
#303=ORIENTED_EDGE('',*,*,#232,.F.) ;
#304=ORIENTED_EDGE('',*,*,#139,.F.) ;
#332=ORIENTED_EDGE('',*,*,#320,.T.) ;
#333=ORIENTED_EDGE('',*,*,#325,.F.) ;
#334=ORIENTED_EDGE('',*,*,#281,.F.) ;
#335=ORIENTED_EDGE('',*,*,#330,.T.) ;
#356=ORIENTED_EDGE('',*,*,#349,.T.) ;
#357=ORIENTED_EDGE('',*,*,#354,.F.) ;
#358=ORIENTED_EDGE('',*,*,#286,.F.) ;
#359=ORIENTED_EDGE('',*,*,#325,.T.) ;
#380=ORIENTED_EDGE('',*,*,#373,.T.) ;
#381=ORIENTED_EDGE('',*,*,#378,.F.) ;
#382=ORIENTED_EDGE('',*,*,#253,.F.) ;
#383=ORIENTED_EDGE('',*,*,#354,.T.) ;
#404=ORIENTED_EDGE('',*,*,#397,.T.) ;
#405=ORIENTED_EDGE('',*,*,#402,.F.) ;
#406=ORIENTED_EDGE('',*,*,#260,.F.) ;
#407=ORIENTED_EDGE('',*,*,#378,.T.) ;
#428=ORIENTED_EDGE('',*,*,#397,.F.) ;
#429=ORIENTED_EDGE('',*,*,#373,.F.) ;
#430=ORIENTED_EDGE('',*,*,#349,.F.) ;
#431=ORIENTED_EDGE('',*,*,#320,.F.) ;
#432=ORIENTED_EDGE('',*,*,#421,.F.) ;
#433=ORIENTED_EDGE('',*,*,#426,.F.) ;
#447=ORIENTED_EDGE('',*,*,#421,.T.) ;
#448=ORIENTED_EDGE('',*,*,#330,.F.) ;
#449=ORIENTED_EDGE('',*,*,#274,.F.) ;
#450=ORIENTED_EDGE('',*,*,#445,.T.) ;
#459=ORIENTED_EDGE('',*,*,#426,.T.) ;
#460=ORIENTED_EDGE('',*,*,#445,.F.) ;
#461=ORIENTED_EDGE('',*,*,#267,.F.) ;
#462=ORIENTED_EDGE('',*,*,#402,.T.) ;
#471=ORIENTED_EDGE('',*,*,#182,.F.) ;
#472=ORIENTED_EDGE('',*,*,#213,.T.) ;
#473=ORIENTED_EDGE('',*,*,#299,.T.) ;
#474=ORIENTED_EDGE('',*,*,#132,.F.) ;
#305=FACE_BOUND('',#300,.T.) ;
#31=CLOSED_SHELL('Closed Shell',(#71,#114,#153,#189,#222,#239,#306,#337,#361,#385,#409,#435,#452,#464,#476)) ;
#477=ADVANCED_BREP_SHAPE_REPRESENTATION('NONE',(#21),#16) ;
#71=ADVANCED_FACE('Hauptk\X2\00F6\X0\rper',(#70),#36,.T.) ;
#114=ADVANCED_FACE('Hauptk\X2\00F6\X0\rper',(#113),#76,.F.) ;
#153=ADVANCED_FACE('Hauptk\X2\00F6\X0\rper',(#152),#119,.T.) ;
#189=ADVANCED_FACE('Hauptk\X2\00F6\X0\rper',(#188),#158,.T.) ;
#222=ADVANCED_FACE('Hauptk\X2\00F6\X0\rper',(#221),#194,.T.) ;
#239=ADVANCED_FACE('Hauptk\X2\00F6\X0\rper',(#238),#227,.T.) ;
#306=ADVANCED_FACE('Hauptk\X2\00F6\X0\rper',(#294,#305),#244,.T.) ;
#337=ADVANCED_FACE('Hauptk\X2\00F6\X0\rper',(#336),#311,.F.) ;
#361=ADVANCED_FACE('Hauptk\X2\00F6\X0\rper',(#360),#342,.F.) ;
#385=ADVANCED_FACE('Hauptk\X2\00F6\X0\rper',(#384),#366,.F.) ;
#409=ADVANCED_FACE('Hauptk\X2\00F6\X0\rper',(#408),#390,.F.) ;
#435=ADVANCED_FACE('Hauptk\X2\00F6\X0\rper',(#434),#414,.F.) ;
#452=ADVANCED_FACE('Hauptk\X2\00F6\X0\rper',(#451),#440,.F.) ;
#464=ADVANCED_FACE('Hauptk\X2\00F6\X0\rper',(#463),#457,.F.) ;
#476=ADVANCED_FACE('Hauptk\X2\00F6\X0\rper',(#475),#469,.T.) ;
#4=APPLICATION_PROTOCOL_DEFINITION('international standard','automotive_design',2001,#1) ;
#84=B_SPLINE_CURVE_WITH_KNOTS('',5,(#85,#86,#87,#88,#89,#90,#91,#92,#93,#94,#95,#96,#97,#98,#99),.UNSPECIFIED.,.F.,.U.,(6,3,3,3,6),(0.,69.7376497987,161.964878211,254.485839628,314.246183491),.UNSPECIFIED.) ;
#120=B_SPLINE_CURVE_WITH_KNOTS('',1,(#121,#122),.UNSPECIFIED.,.F.,.U.,(2,2),(-0.276032968749,0.276032968749),.UNSPECIFIED.) ;
#166=B_SPLINE_CURVE_WITH_KNOTS('',5,(#167,#168,#169,#170,#171,#172,#173,#174,#175,#176,#177,#178,#179,#180,#181),.UNSPECIFIED.,.F.,.U.,(6,3,3,3,6),(0.,69.7376497957,161.964878204,254.485839614,314.246183477),.UNSPECIFIED.) ;
#21=MANIFOLD_SOLID_BREP('Hauptk\X2\00F6\X0\rper',#31) ;
#231=CIRCLE('generated circle',#230,1.) ;
#298=CIRCLE('generated circle',#297,1.) ;
#227=CONICAL_SURFACE('Cone',#226,0.,0.0872664625997) ;
#469=CONICAL_SURFACE('Cone',#468,0.,0.0872664625997) ;
#487=CONSTRUCTIVE_GEOMETRY_REPRESENTATION('supplemental geometry',(#482),#16) ;
#488=CONSTRUCTIVE_GEOMETRY_REPRESENTATION_RELATIONSHIP('supplemental geometry','',#19,#487) ;
#22=DRAUGHTING_PRE_DEFINED_COLOUR('white') ;
#483=DRAUGHTING_PRE_DEFINED_CURVE_FONT('continuous') ;
#45=EDGE_CURVE('',#42,#44,#40,.T.) ;
#52=EDGE_CURVE('',#42,#51,#49,.T.) ;
#59=EDGE_CURVE('',#51,#58,#56,.T.) ;
#64=EDGE_CURVE('',#58,#44,#63,.T.) ;
#83=EDGE_CURVE('',#44,#82,#80,.T.) ;
#102=EDGE_CURVE('',#82,#101,#84,.T.) ;
#107=EDGE_CURVE('',#42,#101,#106,.T.) ;
#125=EDGE_CURVE('',#58,#124,#120,.T.) ;
#132=EDGE_CURVE('',#124,#131,#129,.F.) ;
#139=EDGE_CURVE('',#131,#138,#136,.T.) ;
#144=EDGE_CURVE('',#82,#138,#143,.F.) ;
#165=EDGE_CURVE('',#51,#164,#162,.T.) ;
#182=EDGE_CURVE('',#164,#124,#166,.T.) ;
#201=EDGE_CURVE('',#101,#200,#198,.F.) ;
#208=EDGE_CURVE('',#200,#207,#205,.T.) ;
#213=EDGE_CURVE('',#164,#207,#212,.F.) ;
#232=EDGE_CURVE('',#138,#200,#231,.T.) ;
#253=EDGE_CURVE('',#250,#252,#248,.T.) ;
#260=EDGE_CURVE('',#252,#259,#257,.T.) ;
#267=EDGE_CURVE('',#259,#266,#264,.T.) ;
#274=EDGE_CURVE('',#266,#273,#271,.T.) ;
#281=EDGE_CURVE('',#273,#280,#278,.T.) ;
#286=EDGE_CURVE('',#280,#250,#285,.T.) ;
#299=EDGE_CURVE('',#207,#131,#298,.T.) ;
#320=EDGE_CURVE('',#317,#319,#315,.T.) ;
#325=EDGE_CURVE('',#280,#319,#324,.T.) ;
#330=EDGE_CURVE('',#273,#317,#329,.T.) ;
#349=EDGE_CURVE('',#319,#348,#346,.T.) ;
#354=EDGE_CURVE('',#250,#348,#353,.T.) ;
#373=EDGE_CURVE('',#348,#372,#370,.T.) ;
#378=EDGE_CURVE('',#252,#372,#377,.T.) ;
#397=EDGE_CURVE('',#372,#396,#394,.T.) ;
#402=EDGE_CURVE('',#259,#396,#401,.T.) ;
#421=EDGE_CURVE('',#420,#317,#418,.T.) ;
#426=EDGE_CURVE('',#396,#420,#425,.T.) ;
#445=EDGE_CURVE('',#266,#420,#444,.T.) ;
#65=EDGE_LOOP('',(#66,#67,#68,#69)) ;
#108=EDGE_LOOP('',(#109,#110,#111,#112)) ;
#145=EDGE_LOOP('',(#146,#147,#148,#149,#150,#151)) ;
#183=EDGE_LOOP('',(#184,#185,#186,#187)) ;
#214=EDGE_LOOP('',(#215,#216,#217,#218,#219,#220)) ;
#233=EDGE_LOOP('',(#234,#235,#236,#237)) ;
#287=EDGE_LOOP('',(#288,#289,#290,#291,#292,#293)) ;
#300=EDGE_LOOP('',(#301,#302,#303,#304)) ;
#331=EDGE_LOOP('',(#332,#333,#334,#335)) ;
#355=EDGE_LOOP('',(#356,#357,#358,#359)) ;
#379=EDGE_LOOP('',(#380,#381,#382,#383)) ;
#403=EDGE_LOOP('',(#404,#405,#406,#407)) ;
#427=EDGE_LOOP('',(#428,#429,#430,#431,#432,#433)) ;
#446=EDGE_LOOP('',(#447,#448,#449,#450)) ;
#458=EDGE_LOOP('',(#459,#460,#461,#462)) ;
#470=EDGE_LOOP('',(#471,#472,#473,#474)) ;
#70=FACE_OUTER_BOUND('',#65,.T.) ;
#113=FACE_OUTER_BOUND('',#108,.T.) ;
#152=FACE_OUTER_BOUND('',#145,.T.) ;
#188=FACE_OUTER_BOUND('',#183,.T.) ;
#221=FACE_OUTER_BOUND('',#214,.T.) ;
#238=FACE_OUTER_BOUND('',#233,.T.) ;
#294=FACE_OUTER_BOUND('',#287,.T.) ;
#336=FACE_OUTER_BOUND('',#331,.T.) ;
#360=FACE_OUTER_BOUND('',#355,.T.) ;
#384=FACE_OUTER_BOUND('',#379,.T.) ;
#408=FACE_OUTER_BOUND('',#403,.T.) ;
#434=FACE_OUTER_BOUND('',#427,.T.) ;
#451=FACE_OUTER_BOUND('',#446,.T.) ;
#463=FACE_OUTER_BOUND('',#458,.T.) ;
#475=FACE_OUTER_BOUND('',#470,.T.) ;
#40=LINE('Line',#37,#39) ;
#49=LINE('Line',#46,#48) ;
#56=LINE('Line',#53,#55) ;
#63=LINE('Line',#60,#62) ;
#80=LINE('Line',#77,#79) ;
#106=LINE('Line',#103,#105) ;
#129=LINE('Line',#126,#128) ;
#136=LINE('Line',#133,#135) ;
#143=LINE('Line',#140,#142) ;
#162=LINE('Line',#159,#161) ;
#198=LINE('Line',#195,#197) ;
#205=LINE('Line',#202,#204) ;
#212=LINE('Line',#209,#211) ;
#248=LINE('Line',#245,#247) ;
#257=LINE('Line',#254,#256) ;
#264=LINE('Line',#261,#263) ;
#271=LINE('Line',#268,#270) ;
#278=LINE('Line',#275,#277) ;
#285=LINE('Line',#282,#284) ;
#315=LINE('Line',#312,#314) ;
#324=LINE('Line',#321,#323) ;
#329=LINE('Line',#326,#328) ;
#346=LINE('Line',#343,#345) ;
#353=LINE('Line',#350,#352) ;
#370=LINE('Line',#367,#369) ;
#377=LINE('Line',#374,#376) ;
#394=LINE('Line',#391,#393) ;
#401=LINE('Line',#398,#400) ;
#418=LINE('Line',#415,#417) ;
#425=LINE('Line',#422,#424) ;
#444=LINE('Line',#441,#443) ;
#36=PLANE('',#35) ;
#76=PLANE('',#75) ;
#119=PLANE('',#118) ;
#158=PLANE('',#157) ;
#194=PLANE('',#193) ;
#244=PLANE('',#243) ;
#311=PLANE('',#310) ;
#342=PLANE('',#341) ;
#366=PLANE('',#365) ;
#390=PLANE('',#389) ;
#414=PLANE('',#413) ;
#440=PLANE('',#439) ;
#457=PLANE('',#456) ;
#9=PRODUCT_CATEGORY_RELATIONSHIP(' ',' ',#7,#8) ;
#6=PRODUCT_DEFINITION_FORMATION_WITH_SPECIFIED_SOURCE('',' ',#5,.NOT_KNOWN.) ;
#20=SHAPE_DEFINITION_REPRESENTATION(#11,#19) ;
#42=VERTEX_POINT('',#41) ;
#44=VERTEX_POINT('',#43) ;
#51=VERTEX_POINT('',#50) ;
#58=VERTEX_POINT('',#57) ;
#82=VERTEX_POINT('',#81) ;
#101=VERTEX_POINT('',#100) ;
#124=VERTEX_POINT('',#123) ;
#131=VERTEX_POINT('',#130) ;
#138=VERTEX_POINT('',#137) ;
#164=VERTEX_POINT('',#163) ;
#200=VERTEX_POINT('',#199) ;
#207=VERTEX_POINT('',#206) ;
#250=VERTEX_POINT('',#249) ;
#252=VERTEX_POINT('',#251) ;
#259=VERTEX_POINT('',#258) ;
#266=VERTEX_POINT('',#265) ;
#273=VERTEX_POINT('',#272) ;
#280=VERTEX_POINT('',#279) ;
#317=VERTEX_POINT('',#316) ;
#319=VERTEX_POINT('',#318) ;
#348=VERTEX_POINT('',#347) ;
#372=VERTEX_POINT('',#371) ;
#396=VERTEX_POINT('',#395) ;
#420=VERTEX_POINT('',#419) ;
#12=(LENGTH_UNIT()NAMED_UNIT(*)SI_UNIT(.MILLI.,.METRE.)) ;
#13=(NAMED_UNIT(*)PLANE_ANGLE_UNIT()SI_UNIT($,.RADIAN.)) ;
#14=(NAMED_UNIT(*)SI_UNIT($,.STERADIAN.)SOLID_ANGLE_UNIT()) ;
#16=(GEOMETRIC_REPRESENTATION_CONTEXT(3)GLOBAL_UNCERTAINTY_ASSIGNED_CONTEXT((#15))GLOBAL_UNIT_ASSIGNED_CONTEXT((#12,#13,#14))REPRESENTATION_CONTEXT(' ',' ')) ;
ENDSEC;
END-ISO-10303-21;
