ISO-10303-21;
HEADER;
FILE_DESCRIPTION(('CATIA V5 STEP Exchange','CAx-IF Rec.Pracs.--- Model Styling and Organization---1.4--- 2014-01-23'),'2;1');

FILE_NAME ('001169-2_0_0194400000_0194400000_S.stp','2021-05-07T11:58:26+00:00',('none'),('Weidmueller'),'CATIA Version 5-6 Release 2016 SP3 HF44','CATIA V5 STEP AP214','none');

FILE_SCHEMA(('AUTOMOTIVE_DESIGN { 1 0 10303 214 1 1 1 1 }'));

ENDSEC;
DATA;
#5=PRODUCT('QL 3 SAK6N','','<Q-CHECKER_SEAL> Q-Checker Version 2.14.8  \X2\000A\X0\CATIA-Version         : Catia V5 R20 SP5 Build Date 01-14-2011.22.00\X2\000A\X0\Model size (in KByte) : 0\X2\000A\X0\Checking date         : 2012-07-31 10:05:40\X2\000A\X0\Checking profile      : ADMIN / Release_2D-3D [CATPart]\X2\000A\X0\Model assessment      : In Ordnung (IO)\X2\000A\X0\Total weight sum      : 0\X2\000A\X0\<CROSS_CHECK_SUM>\X2\000A\X0\  <CHKSUM_DATE> 1869085564 </CHKSUM_DATE>\X2\000A\X0\  <CHKSUM_ENTITIES> -1675531658 </CHKSUM_ENTITIES>\X2\000A\X0\  <CHKSUM_PROFILE> 1594213346 </CHKSUM_PROFILE>\X2\000A\X0\  <CHKSUM_DIMENSION> -186917087 </CHKSUM_DIMENSION>\X2\000A\X0\  <CHKSUM_PROJINTERSEC> -896974048 </CHKSUM_PROJINTERSEC>\X2\000A\X0\  <CHKSUM_IDENTCRV> -896974048 </CHKSUM_IDENTCRV>\X2\000A\X0\  <CHKSUM_INFINITY> 138018827 </CHKSUM_INFINITY>\X2\000A\X0\</CROSS_CHECK_SUM>\X2\000A\X0\</Q-CHECKER_SEAL> \X2\000A\X0\ \X2\000A\X0\ \X2\000A\X0\',(#2)) ;
#2=PRODUCT_CONTEXT(' ',#1,'mechanical') ;
#1=APPLICATION_CONTEXT('automotive design') ;
#10=PRODUCT_DEFINITION('',' ',#6,#3) ;
#3=PRODUCT_DEFINITION_CONTEXT('part definition',#1,' ') ;
#11=PRODUCT_DEFINITION_SHAPE(' ',' ',#10) ;
#581=MECHANICAL_DESIGN_GEOMETRIC_PRESENTATION_REPRESENTATION(' ',(#29),#16) ;
#582=MECHANICAL_DESIGN_GEOMETRIC_PRESENTATION_REPRESENTATION(' ',(#578),#16) ;
#19=SHAPE_REPRESENTATION(' ',(#18),#16) ;
#18=AXIS2_PLACEMENT_3D(' ',#17,$,$) ;
#35=AXIS2_PLACEMENT_3D('Cylinder Axis2P3D',#32,#33,#34) ;
#48=AXIS2_PLACEMENT_3D('Circle Axis2P3D',#46,#47,$) ;
#62=AXIS2_PLACEMENT_3D('Circle Axis2P3D',#60,#61,$) ;
#75=AXIS2_PLACEMENT_3D('Plane Axis2P3D',#72,#73,#74) ;
#106=AXIS2_PLACEMENT_3D('Plane Axis2P3D',#103,#104,#105) ;
#137=AXIS2_PLACEMENT_3D('Cylinder Axis2P3D',#134,#135,#136) ;
#141=AXIS2_PLACEMENT_3D('Circle Axis2P3D',#139,#140,$) ;
#146=AXIS2_PLACEMENT_3D('Circle Axis2P3D',#144,#145,$) ;
#159=AXIS2_PLACEMENT_3D('Plane Axis2P3D',#156,#157,#158) ;
#197=AXIS2_PLACEMENT_3D('Circle Axis2P3D',#195,#196,$) ;
#213=AXIS2_PLACEMENT_3D('Circle Axis2P3D',#211,#212,$) ;
#231=AXIS2_PLACEMENT_3D('Circle Axis2P3D',#229,#230,$) ;
#247=AXIS2_PLACEMENT_3D('Circle Axis2P3D',#245,#246,$) ;
#273=AXIS2_PLACEMENT_3D('Plane Axis2P3D',#270,#271,#272) ;
#320=AXIS2_PLACEMENT_3D('Circle Axis2P3D',#318,#319,$) ;
#334=AXIS2_PLACEMENT_3D('Circle Axis2P3D',#332,#333,$) ;
#354=AXIS2_PLACEMENT_3D('Circle Axis2P3D',#352,#353,$) ;
#368=AXIS2_PLACEMENT_3D('Circle Axis2P3D',#366,#367,$) ;
#387=AXIS2_PLACEMENT_3D('Plane Axis2P3D',#384,#385,#386) ;
#409=AXIS2_PLACEMENT_3D('Plane Axis2P3D',#406,#407,#408) ;
#426=AXIS2_PLACEMENT_3D('Plane Axis2P3D',#423,#424,#425) ;
#443=AXIS2_PLACEMENT_3D('Plane Axis2P3D',#440,#441,#442) ;
#455=AXIS2_PLACEMENT_3D('Cylinder Axis2P3D',#452,#453,#454) ;
#501=AXIS2_PLACEMENT_3D('Cylinder Axis2P3D',#498,#499,#500) ;
#513=AXIS2_PLACEMENT_3D('Cylinder Axis2P3D',#510,#511,#512) ;
#559=AXIS2_PLACEMENT_3D('Cylinder Axis2P3D',#556,#557,#558) ;
#573=AXIS2_PLACEMENT_3D('Axis System.1',#570,#571,#572) ;
#17=CARTESIAN_POINT(' ',(0.,0.,0.)) ;
#32=CARTESIAN_POINT('Axis2P3D Location',(18.8,3.,0.5)) ;
#37=CARTESIAN_POINT('Line Origine',(17.3562635282,4.525,0.5)) ;
#41=CARTESIAN_POINT('Vertex',(17.3562635282,4.525,1.)) ;
#43=CARTESIAN_POINT('Vertex',(17.3562635282,4.525,0.)) ;
#46=CARTESIAN_POINT('Axis2P3D Location',(18.8,3.,1.)) ;
#50=CARTESIAN_POINT('Vertex',(17.3562635282,1.475,1.)) ;
#53=CARTESIAN_POINT('Line Origine',(17.3562635282,1.475,0.5)) ;
#57=CARTESIAN_POINT('Vertex',(17.3562635282,1.475,0.)) ;
#60=CARTESIAN_POINT('Axis2P3D Location',(18.8,3.,0.)) ;
#72=CARTESIAN_POINT('Axis2P3D Location',(1.56409540265,4.525,1.)) ;
#77=CARTESIAN_POINT('Line Origine',(20.2437364718,4.525,0.5)) ;
#81=CARTESIAN_POINT('Vertex',(20.2437364718,4.525,1.)) ;
#83=CARTESIAN_POINT('Vertex',(20.2437364718,4.525,0.)) ;
#86=CARTESIAN_POINT('Line Origine',(18.8,4.525,1.)) ;
#91=CARTESIAN_POINT('Line Origine',(18.8,4.525,0.)) ;
#103=CARTESIAN_POINT('Axis2P3D Location',(4.4514886012,1.475,1.)) ;
#108=CARTESIAN_POINT('Line Origine',(18.8,1.475,1.)) ;
#112=CARTESIAN_POINT('Vertex',(20.2437364718,1.475,1.)) ;
#115=CARTESIAN_POINT('Line Origine',(20.2437364718,1.475,0.5)) ;
#119=CARTESIAN_POINT('Vertex',(20.2437364718,1.475,0.)) ;
#122=CARTESIAN_POINT('Line Origine',(18.8,1.475,0.)) ;
#134=CARTESIAN_POINT('Axis2P3D Location',(18.8,3.,0.5)) ;
#139=CARTESIAN_POINT('Axis2P3D Location',(18.8,3.,1.)) ;
#144=CARTESIAN_POINT('Axis2P3D Location',(18.8,3.,0.)) ;
#156=CARTESIAN_POINT('Axis2P3D Location',(0.,0.,1.)) ;
#161=CARTESIAN_POINT('Line Origine',(10.9,0.,1.)) ;
#165=CARTESIAN_POINT('Vertex',(0.,0.,1.)) ;
#167=CARTESIAN_POINT('Vertex',(21.8,0.,1.)) ;
#170=CARTESIAN_POINT('Line Origine',(21.8,3.,1.)) ;
#174=CARTESIAN_POINT('Vertex',(21.8,6.,1.)) ;
#177=CARTESIAN_POINT('Line Origine',(10.9,6.,1.)) ;
#181=CARTESIAN_POINT('Vertex',(0.,6.,1.)) ;
#184=CARTESIAN_POINT('Line Origine',(0.,3.,1.)) ;
#195=CARTESIAN_POINT('Axis2P3D Location',(3.,2.99262341857,1.)) ;
#199=CARTESIAN_POINT('Vertex',(4.4514886012,1.475,1.)) ;
#201=CARTESIAN_POINT('Vertex',(4.43590459735,4.525,1.)) ;
#204=CARTESIAN_POINT('Line Origine',(3.,1.475,1.)) ;
#208=CARTESIAN_POINT('Vertex',(1.5485113988,1.475,1.)) ;
#211=CARTESIAN_POINT('Axis2P3D Location',(3.,2.99262341857,1.)) ;
#215=CARTESIAN_POINT('Vertex',(1.56409540265,4.525,1.)) ;
#218=CARTESIAN_POINT('Line Origine',(3.,4.525,1.)) ;
#229=CARTESIAN_POINT('Axis2P3D Location',(10.9,2.99262341857,1.)) ;
#233=CARTESIAN_POINT('Vertex',(12.3514886012,1.475,1.)) ;
#235=CARTESIAN_POINT('Vertex',(12.3359045973,4.525,1.)) ;
#238=CARTESIAN_POINT('Line Origine',(10.9,1.475,1.)) ;
#242=CARTESIAN_POINT('Vertex',(9.4485113988,1.475,1.)) ;
#245=CARTESIAN_POINT('Axis2P3D Location',(10.9,2.99262341857,1.)) ;
#249=CARTESIAN_POINT('Vertex',(9.46409540265,4.525,1.)) ;
#252=CARTESIAN_POINT('Line Origine',(10.9,4.525,1.)) ;
#270=CARTESIAN_POINT('Axis2P3D Location',(0.,0.,0.)) ;
#275=CARTESIAN_POINT('Line Origine',(0.,3.,0.)) ;
#279=CARTESIAN_POINT('Vertex',(0.,6.,0.)) ;
#281=CARTESIAN_POINT('Vertex',(0.,0.,0.)) ;
#284=CARTESIAN_POINT('Line Origine',(10.9,6.,0.)) ;
#288=CARTESIAN_POINT('Vertex',(21.8,6.,0.)) ;
#291=CARTESIAN_POINT('Line Origine',(21.8,3.,0.)) ;
#295=CARTESIAN_POINT('Vertex',(21.8,0.,0.)) ;
#298=CARTESIAN_POINT('Line Origine',(10.9,0.,0.)) ;
#309=CARTESIAN_POINT('Line Origine',(3.,4.525,0.)) ;
#313=CARTESIAN_POINT('Vertex',(4.43590459735,4.525,0.)) ;
#315=CARTESIAN_POINT('Vertex',(1.56409540265,4.525,0.)) ;
#318=CARTESIAN_POINT('Axis2P3D Location',(3.,2.99262341857,0.)) ;
#322=CARTESIAN_POINT('Vertex',(1.5485113988,1.475,0.)) ;
#325=CARTESIAN_POINT('Line Origine',(3.,1.475,0.)) ;
#329=CARTESIAN_POINT('Vertex',(4.4514886012,1.475,0.)) ;
#332=CARTESIAN_POINT('Axis2P3D Location',(3.,2.99262341857,0.)) ;
#343=CARTESIAN_POINT('Line Origine',(10.9,4.525,0.)) ;
#347=CARTESIAN_POINT('Vertex',(12.3359045973,4.525,0.)) ;
#349=CARTESIAN_POINT('Vertex',(9.46409540265,4.525,0.)) ;
#352=CARTESIAN_POINT('Axis2P3D Location',(10.9,2.99262341857,0.)) ;
#356=CARTESIAN_POINT('Vertex',(9.4485113988,1.475,0.)) ;
#359=CARTESIAN_POINT('Line Origine',(10.9,1.475,0.)) ;
#363=CARTESIAN_POINT('Vertex',(12.3514886012,1.475,0.)) ;
#366=CARTESIAN_POINT('Axis2P3D Location',(10.9,2.99262341857,0.)) ;
#384=CARTESIAN_POINT('Axis2P3D Location',(0.,6.,0.)) ;
#389=CARTESIAN_POINT('Line Origine',(0.,6.,0.5)) ;
#394=CARTESIAN_POINT('Line Origine',(0.,0.,0.5)) ;
#406=CARTESIAN_POINT('Axis2P3D Location',(21.8,6.,0.)) ;
#411=CARTESIAN_POINT('Line Origine',(21.8,6.,0.5)) ;
#423=CARTESIAN_POINT('Axis2P3D Location',(21.8,-2.79994500386E-015,0.)) ;
#428=CARTESIAN_POINT('Line Origine',(21.8,-2.79994500386E-015,0.5)) ;
#440=CARTESIAN_POINT('Axis2P3D Location',(0.,0.,0.)) ;
#452=CARTESIAN_POINT('Axis2P3D Location',(10.9,2.99262341857,0.5)) ;
#457=CARTESIAN_POINT('Line Origine',(9.46409540265,4.525,0.5)) ;
#462=CARTESIAN_POINT('Line Origine',(9.4485113988,1.475,0.5)) ;
#474=CARTESIAN_POINT('Line Origine',(12.3359045973,4.525,0.5)) ;
#486=CARTESIAN_POINT('Line Origine',(12.3514886012,1.475,0.5)) ;
#498=CARTESIAN_POINT('Axis2P3D Location',(10.9,2.99262341857,0.5)) ;
#510=CARTESIAN_POINT('Axis2P3D Location',(3.,2.99262341857,0.5)) ;
#515=CARTESIAN_POINT('Line Origine',(1.56409540265,4.525,0.5)) ;
#520=CARTESIAN_POINT('Line Origine',(1.5485113988,1.475,0.5)) ;
#532=CARTESIAN_POINT('Line Origine',(4.43590459735,4.525,0.5)) ;
#544=CARTESIAN_POINT('Line Origine',(4.4514886012,1.475,0.5)) ;
#556=CARTESIAN_POINT('Axis2P3D Location',(3.,2.99262341857,0.5)) ;
#570=CARTESIAN_POINT('Axis2P3D Location',(0.,0.,0.)) ;
#33=DIRECTION('Axis2P3D Direction',(0.,0.,1.)) ;
#34=DIRECTION('Axis2P3D XDirection',(-0.687493557999,0.72619047619,0.)) ;
#38=DIRECTION('Vector Direction',(0.,0.,1.)) ;
#47=DIRECTION('Axis2P3D Direction',(0.,0.,1.)) ;
#54=DIRECTION('Vector Direction',(0.,0.,1.)) ;
#61=DIRECTION('Axis2P3D Direction',(0.,0.,1.)) ;
#73=DIRECTION('Axis2P3D Direction',(-0.,1.,0.)) ;
#74=DIRECTION('Axis2P3D XDirection',(1.,0.,0.)) ;
#78=DIRECTION('Vector Direction',(0.,0.,-1.)) ;
#87=DIRECTION('Vector Direction',(1.,0.,0.)) ;
#92=DIRECTION('Vector Direction',(1.,0.,0.)) ;
#104=DIRECTION('Axis2P3D Direction',(-0.,-1.,-0.)) ;
#105=DIRECTION('Axis2P3D XDirection',(-1.,0.,0.)) ;
#109=DIRECTION('Vector Direction',(-1.,0.,0.)) ;
#116=DIRECTION('Vector Direction',(0.,0.,-1.)) ;
#123=DIRECTION('Vector Direction',(-1.,0.,0.)) ;
#135=DIRECTION('Axis2P3D Direction',(0.,0.,1.)) ;
#136=DIRECTION('Axis2P3D XDirection',(0.687493557999,-0.72619047619,0.)) ;
#140=DIRECTION('Axis2P3D Direction',(0.,0.,1.)) ;
#145=DIRECTION('Axis2P3D Direction',(0.,0.,1.)) ;
#157=DIRECTION('Axis2P3D Direction',(0.,0.,1.)) ;
#158=DIRECTION('Axis2P3D XDirection',(1.,0.,0.)) ;
#162=DIRECTION('Vector Direction',(1.,0.,0.)) ;
#171=DIRECTION('Vector Direction',(0.,1.,0.)) ;
#178=DIRECTION('Vector Direction',(-1.,0.,0.)) ;
#185=DIRECTION('Vector Direction',(0.,-1.,0.)) ;
#196=DIRECTION('Axis2P3D Direction',(0.,0.,1.)) ;
#205=DIRECTION('Vector Direction',(-1.,0.,0.)) ;
#212=DIRECTION('Axis2P3D Direction',(0.,0.,1.)) ;
#219=DIRECTION('Vector Direction',(1.,0.,0.)) ;
#230=DIRECTION('Axis2P3D Direction',(0.,0.,1.)) ;
#239=DIRECTION('Vector Direction',(-1.,0.,0.)) ;
#246=DIRECTION('Axis2P3D Direction',(0.,0.,1.)) ;
#253=DIRECTION('Vector Direction',(1.,0.,0.)) ;
#271=DIRECTION('Axis2P3D Direction',(0.,0.,1.)) ;
#272=DIRECTION('Axis2P3D XDirection',(1.,0.,0.)) ;
#276=DIRECTION('Vector Direction',(0.,-1.,0.)) ;
#285=DIRECTION('Vector Direction',(-1.,0.,0.)) ;
#292=DIRECTION('Vector Direction',(0.,1.,0.)) ;
#299=DIRECTION('Vector Direction',(1.,0.,0.)) ;
#310=DIRECTION('Vector Direction',(1.,0.,0.)) ;
#319=DIRECTION('Axis2P3D Direction',(0.,0.,1.)) ;
#326=DIRECTION('Vector Direction',(-1.,0.,0.)) ;
#333=DIRECTION('Axis2P3D Direction',(0.,0.,1.)) ;
#344=DIRECTION('Vector Direction',(1.,0.,0.)) ;
#353=DIRECTION('Axis2P3D Direction',(0.,0.,1.)) ;
#360=DIRECTION('Vector Direction',(-1.,0.,0.)) ;
#367=DIRECTION('Axis2P3D Direction',(0.,0.,1.)) ;
#385=DIRECTION('Axis2P3D Direction',(-1.,0.,0.)) ;
#386=DIRECTION('Axis2P3D XDirection',(0.,-1.,0.)) ;
#390=DIRECTION('Vector Direction',(0.,0.,1.)) ;
#395=DIRECTION('Vector Direction',(0.,0.,1.)) ;
#407=DIRECTION('Axis2P3D Direction',(0.,1.,-0.)) ;
#408=DIRECTION('Axis2P3D XDirection',(-1.,0.,0.)) ;
#412=DIRECTION('Vector Direction',(0.,0.,1.)) ;
#424=DIRECTION('Axis2P3D Direction',(1.,0.,0.)) ;
#425=DIRECTION('Axis2P3D XDirection',(0.,1.,0.)) ;
#429=DIRECTION('Vector Direction',(0.,0.,1.)) ;
#441=DIRECTION('Axis2P3D Direction',(0.,-1.,0.)) ;
#442=DIRECTION('Axis2P3D XDirection',(1.,0.,0.)) ;
#453=DIRECTION('Axis2P3D Direction',(0.,0.,1.)) ;
#454=DIRECTION('Axis2P3D XDirection',(-0.683764093975,0.729703134014,0.)) ;
#458=DIRECTION('Vector Direction',(0.,0.,1.)) ;
#463=DIRECTION('Vector Direction',(0.,0.,1.)) ;
#475=DIRECTION('Vector Direction',(0.,0.,-1.)) ;
#487=DIRECTION('Vector Direction',(0.,0.,-1.)) ;
#499=DIRECTION('Axis2P3D Direction',(0.,0.,1.)) ;
#500=DIRECTION('Axis2P3D XDirection',(0.69118504819,-0.722677818366,0.)) ;
#511=DIRECTION('Axis2P3D Direction',(0.,0.,1.)) ;
#512=DIRECTION('Axis2P3D XDirection',(-0.683764093975,0.729703134014,0.)) ;
#516=DIRECTION('Vector Direction',(0.,0.,1.)) ;
#521=DIRECTION('Vector Direction',(0.,0.,1.)) ;
#533=DIRECTION('Vector Direction',(0.,0.,-1.)) ;
#545=DIRECTION('Vector Direction',(0.,0.,-1.)) ;
#557=DIRECTION('Axis2P3D Direction',(0.,0.,1.)) ;
#558=DIRECTION('Axis2P3D XDirection',(0.69118504819,-0.722677818366,0.)) ;
#571=DIRECTION('Axis2P3D Direction',(0.,0.,1.)) ;
#572=DIRECTION('Axis2P3D XDirection',(1.,0.,0.)) ;
#30=PRESENTATION_LAYER_ASSIGNMENT('1',' ',(#21)) ;
#8=PRODUCT_RELATED_PRODUCT_CATEGORY('part',$,(#5)) ;
#7=PRODUCT_CATEGORY('part','specification') ;
#29=STYLED_ITEM(' ',(#28),#21) ;
#578=STYLED_ITEM(' ',(#577),#573) ;
#28=PRESENTATION_STYLE_ASSIGNMENT((#27)) ;
#577=PRESENTATION_STYLE_ASSIGNMENT((#576)) ;
#576=CURVE_STYLE(' ',#574,POSITIVE_LENGTH_MEASURE(0.129999995232),#575) ;
#27=SURFACE_STYLE_USAGE(.BOTH.,#26) ;
#26=SURFACE_SIDE_STYLE(' ',(#25)) ;
#25=SURFACE_STYLE_FILL_AREA(#24) ;
#24=FILL_AREA_STYLE(' ',(#23)) ;
#23=FILL_AREA_STYLE_COLOUR(' ',#22) ;
#39=VECTOR('Line Direction',#38,1.) ;
#55=VECTOR('Line Direction',#54,1.) ;
#79=VECTOR('Line Direction',#78,1.) ;
#88=VECTOR('Line Direction',#87,1.) ;
#93=VECTOR('Line Direction',#92,1.) ;
#110=VECTOR('Line Direction',#109,1.) ;
#117=VECTOR('Line Direction',#116,1.) ;
#124=VECTOR('Line Direction',#123,1.) ;
#163=VECTOR('Line Direction',#162,1.) ;
#172=VECTOR('Line Direction',#171,1.) ;
#179=VECTOR('Line Direction',#178,1.) ;
#186=VECTOR('Line Direction',#185,1.) ;
#206=VECTOR('Line Direction',#205,1.) ;
#220=VECTOR('Line Direction',#219,1.) ;
#240=VECTOR('Line Direction',#239,1.) ;
#254=VECTOR('Line Direction',#253,1.) ;
#277=VECTOR('Line Direction',#276,1.) ;
#286=VECTOR('Line Direction',#285,1.) ;
#293=VECTOR('Line Direction',#292,1.) ;
#300=VECTOR('Line Direction',#299,1.) ;
#311=VECTOR('Line Direction',#310,1.) ;
#327=VECTOR('Line Direction',#326,1.) ;
#345=VECTOR('Line Direction',#344,1.) ;
#361=VECTOR('Line Direction',#360,1.) ;
#391=VECTOR('Line Direction',#390,1.) ;
#396=VECTOR('Line Direction',#395,1.) ;
#413=VECTOR('Line Direction',#412,1.) ;
#430=VECTOR('Line Direction',#429,1.) ;
#459=VECTOR('Line Direction',#458,1.) ;
#464=VECTOR('Line Direction',#463,1.) ;
#476=VECTOR('Line Direction',#475,1.) ;
#488=VECTOR('Line Direction',#487,1.) ;
#517=VECTOR('Line Direction',#516,1.) ;
#522=VECTOR('Line Direction',#521,1.) ;
#534=VECTOR('Line Direction',#533,1.) ;
#546=VECTOR('Line Direction',#545,1.) ;
#15=UNCERTAINTY_MEASURE_WITH_UNIT(LENGTH_MEASURE(0.005),#12,'distance_accuracy_value','CONFUSED CURVE UNCERTAINTY') ;
#569=SHAPE_REPRESENTATION_RELATIONSHIP(' ',' ',#19,#568) ;
#66=ORIENTED_EDGE('',*,*,#45,.F.) ;
#67=ORIENTED_EDGE('',*,*,#52,.T.) ;
#68=ORIENTED_EDGE('',*,*,#59,.T.) ;
#69=ORIENTED_EDGE('',*,*,#64,.F.) ;
#97=ORIENTED_EDGE('',*,*,#85,.F.) ;
#98=ORIENTED_EDGE('',*,*,#90,.T.) ;
#99=ORIENTED_EDGE('',*,*,#45,.T.) ;
#100=ORIENTED_EDGE('',*,*,#95,.F.) ;
#128=ORIENTED_EDGE('',*,*,#59,.F.) ;
#129=ORIENTED_EDGE('',*,*,#114,.T.) ;
#130=ORIENTED_EDGE('',*,*,#121,.T.) ;
#131=ORIENTED_EDGE('',*,*,#126,.F.) ;
#150=ORIENTED_EDGE('',*,*,#121,.F.) ;
#151=ORIENTED_EDGE('',*,*,#143,.T.) ;
#152=ORIENTED_EDGE('',*,*,#85,.T.) ;
#153=ORIENTED_EDGE('',*,*,#148,.F.) ;
#190=ORIENTED_EDGE('',*,*,#169,.T.) ;
#191=ORIENTED_EDGE('',*,*,#176,.T.) ;
#192=ORIENTED_EDGE('',*,*,#183,.T.) ;
#193=ORIENTED_EDGE('',*,*,#188,.T.) ;
#224=ORIENTED_EDGE('',*,*,#203,.F.) ;
#225=ORIENTED_EDGE('',*,*,#210,.F.) ;
#226=ORIENTED_EDGE('',*,*,#217,.F.) ;
#227=ORIENTED_EDGE('',*,*,#222,.F.) ;
#258=ORIENTED_EDGE('',*,*,#237,.F.) ;
#259=ORIENTED_EDGE('',*,*,#244,.F.) ;
#260=ORIENTED_EDGE('',*,*,#251,.F.) ;
#261=ORIENTED_EDGE('',*,*,#256,.F.) ;
#264=ORIENTED_EDGE('',*,*,#143,.F.) ;
#265=ORIENTED_EDGE('',*,*,#114,.F.) ;
#266=ORIENTED_EDGE('',*,*,#52,.F.) ;
#267=ORIENTED_EDGE('',*,*,#90,.F.) ;
#304=ORIENTED_EDGE('',*,*,#283,.F.) ;
#305=ORIENTED_EDGE('',*,*,#290,.F.) ;
#306=ORIENTED_EDGE('',*,*,#297,.F.) ;
#307=ORIENTED_EDGE('',*,*,#302,.F.) ;
#338=ORIENTED_EDGE('',*,*,#317,.T.) ;
#339=ORIENTED_EDGE('',*,*,#324,.T.) ;
#340=ORIENTED_EDGE('',*,*,#331,.T.) ;
#341=ORIENTED_EDGE('',*,*,#336,.T.) ;
#372=ORIENTED_EDGE('',*,*,#351,.T.) ;
#373=ORIENTED_EDGE('',*,*,#358,.T.) ;
#374=ORIENTED_EDGE('',*,*,#365,.T.) ;
#375=ORIENTED_EDGE('',*,*,#370,.T.) ;
#378=ORIENTED_EDGE('',*,*,#95,.T.) ;
#379=ORIENTED_EDGE('',*,*,#64,.T.) ;
#380=ORIENTED_EDGE('',*,*,#126,.T.) ;
#381=ORIENTED_EDGE('',*,*,#148,.T.) ;
#400=ORIENTED_EDGE('',*,*,#393,.F.) ;
#401=ORIENTED_EDGE('',*,*,#283,.T.) ;
#402=ORIENTED_EDGE('',*,*,#398,.T.) ;
#403=ORIENTED_EDGE('',*,*,#188,.F.) ;
#417=ORIENTED_EDGE('',*,*,#415,.F.) ;
#418=ORIENTED_EDGE('',*,*,#290,.T.) ;
#419=ORIENTED_EDGE('',*,*,#393,.T.) ;
#420=ORIENTED_EDGE('',*,*,#183,.F.) ;
#434=ORIENTED_EDGE('',*,*,#432,.F.) ;
#435=ORIENTED_EDGE('',*,*,#297,.T.) ;
#436=ORIENTED_EDGE('',*,*,#415,.T.) ;
#437=ORIENTED_EDGE('',*,*,#176,.F.) ;
#446=ORIENTED_EDGE('',*,*,#398,.F.) ;
#447=ORIENTED_EDGE('',*,*,#302,.T.) ;
#448=ORIENTED_EDGE('',*,*,#432,.T.) ;
#449=ORIENTED_EDGE('',*,*,#169,.F.) ;
#468=ORIENTED_EDGE('',*,*,#461,.F.) ;
#469=ORIENTED_EDGE('',*,*,#251,.T.) ;
#470=ORIENTED_EDGE('',*,*,#466,.T.) ;
#471=ORIENTED_EDGE('',*,*,#358,.F.) ;
#480=ORIENTED_EDGE('',*,*,#478,.F.) ;
#481=ORIENTED_EDGE('',*,*,#256,.T.) ;
#482=ORIENTED_EDGE('',*,*,#461,.T.) ;
#483=ORIENTED_EDGE('',*,*,#351,.F.) ;
#492=ORIENTED_EDGE('',*,*,#466,.F.) ;
#493=ORIENTED_EDGE('',*,*,#244,.T.) ;
#494=ORIENTED_EDGE('',*,*,#490,.T.) ;
#495=ORIENTED_EDGE('',*,*,#365,.F.) ;
#504=ORIENTED_EDGE('',*,*,#490,.F.) ;
#505=ORIENTED_EDGE('',*,*,#237,.T.) ;
#506=ORIENTED_EDGE('',*,*,#478,.T.) ;
#507=ORIENTED_EDGE('',*,*,#370,.F.) ;
#526=ORIENTED_EDGE('',*,*,#519,.F.) ;
#527=ORIENTED_EDGE('',*,*,#217,.T.) ;
#528=ORIENTED_EDGE('',*,*,#524,.T.) ;
#529=ORIENTED_EDGE('',*,*,#324,.F.) ;
#538=ORIENTED_EDGE('',*,*,#536,.F.) ;
#539=ORIENTED_EDGE('',*,*,#222,.T.) ;
#540=ORIENTED_EDGE('',*,*,#519,.T.) ;
#541=ORIENTED_EDGE('',*,*,#317,.F.) ;
#550=ORIENTED_EDGE('',*,*,#524,.F.) ;
#551=ORIENTED_EDGE('',*,*,#210,.T.) ;
#552=ORIENTED_EDGE('',*,*,#548,.T.) ;
#553=ORIENTED_EDGE('',*,*,#331,.F.) ;
#562=ORIENTED_EDGE('',*,*,#548,.F.) ;
#563=ORIENTED_EDGE('',*,*,#203,.T.) ;
#564=ORIENTED_EDGE('',*,*,#536,.T.) ;
#565=ORIENTED_EDGE('',*,*,#336,.F.) ;
#228=FACE_BOUND('',#223,.T.) ;
#262=FACE_BOUND('',#257,.T.) ;
#268=FACE_BOUND('',#263,.T.) ;
#342=FACE_BOUND('',#337,.T.) ;
#376=FACE_BOUND('',#371,.T.) ;
#382=FACE_BOUND('',#377,.T.) ;
#31=CLOSED_SHELL('Closed Shell',(#71,#102,#133,#155,#269,#383,#405,#422,#439,#451,#473,#485,#497,#509,#531,#543,#555,#567)) ;
#568=ADVANCED_BREP_SHAPE_REPRESENTATION('NONE',(#21),#16) ;
#71=ADVANCED_FACE('Body.3',(#70),#36,.F.) ;
#102=ADVANCED_FACE('Body.3',(#101),#76,.F.) ;
#133=ADVANCED_FACE('Body.3',(#132),#107,.F.) ;
#155=ADVANCED_FACE('Body.3',(#154),#138,.F.) ;
#269=ADVANCED_FACE('Body.3',(#194,#228,#262,#268),#160,.T.) ;
#383=ADVANCED_FACE('Body.3',(#308,#342,#376,#382),#274,.F.) ;
#405=ADVANCED_FACE('Body.3',(#404),#388,.T.) ;
#422=ADVANCED_FACE('Body.3',(#421),#410,.T.) ;
#439=ADVANCED_FACE('Body.3',(#438),#427,.T.) ;
#451=ADVANCED_FACE('Body.3',(#450),#444,.T.) ;
#473=ADVANCED_FACE('Body.3',(#472),#456,.F.) ;
#485=ADVANCED_FACE('Body.3',(#484),#76,.F.) ;
#497=ADVANCED_FACE('Body.3',(#496),#107,.F.) ;
#509=ADVANCED_FACE('Body.3',(#508),#502,.F.) ;
#531=ADVANCED_FACE('Body.3',(#530),#514,.F.) ;
#543=ADVANCED_FACE('Body.3',(#542),#76,.F.) ;
#555=ADVANCED_FACE('Body.3',(#554),#107,.F.) ;
#567=ADVANCED_FACE('Body.3',(#566),#560,.F.) ;
#4=APPLICATION_PROTOCOL_DEFINITION('international standard','automotive_design',2001,#1) ;
#21=MANIFOLD_SOLID_BREP('Body.3',#31) ;
#49=CIRCLE('generated circle',#48,2.1) ;
#63=CIRCLE('generated circle',#62,2.1) ;
#142=CIRCLE('generated circle',#141,2.1) ;
#147=CIRCLE('generated circle',#146,2.1) ;
#198=CIRCLE('generated circle',#197,2.1) ;
#214=CIRCLE('generated circle',#213,2.1) ;
#232=CIRCLE('generated circle',#231,2.1) ;
#248=CIRCLE('generated circle',#247,2.1) ;
#321=CIRCLE('generated circle',#320,2.1) ;
#335=CIRCLE('generated circle',#334,2.1) ;
#355=CIRCLE('generated circle',#354,2.1) ;
#369=CIRCLE('generated circle',#368,2.1) ;
#22=COLOUR_RGB('Colour',0.823529411765,0.823529411765,1.) ;
#579=CONSTRUCTIVE_GEOMETRY_REPRESENTATION('supplemental geometry',(#573),#16) ;
#580=CONSTRUCTIVE_GEOMETRY_REPRESENTATION_RELATIONSHIP('supplemental geometry','',#19,#579) ;
#36=CYLINDRICAL_SURFACE('generated cylinder',#35,2.1) ;
#138=CYLINDRICAL_SURFACE('generated cylinder',#137,2.1) ;
#456=CYLINDRICAL_SURFACE('generated cylinder',#455,2.1) ;
#502=CYLINDRICAL_SURFACE('generated cylinder',#501,2.1) ;
#514=CYLINDRICAL_SURFACE('generated cylinder',#513,2.1) ;
#560=CYLINDRICAL_SURFACE('generated cylinder',#559,2.1) ;
#575=DRAUGHTING_PRE_DEFINED_COLOUR('white') ;
#574=DRAUGHTING_PRE_DEFINED_CURVE_FONT('continuous') ;
#45=EDGE_CURVE('',#42,#44,#40,.F.) ;
#52=EDGE_CURVE('',#42,#51,#49,.T.) ;
#59=EDGE_CURVE('',#51,#58,#56,.F.) ;
#64=EDGE_CURVE('',#44,#58,#63,.T.) ;
#85=EDGE_CURVE('',#82,#84,#80,.T.) ;
#90=EDGE_CURVE('',#82,#42,#89,.F.) ;
#95=EDGE_CURVE('',#84,#44,#94,.F.) ;
#114=EDGE_CURVE('',#51,#113,#111,.F.) ;
#121=EDGE_CURVE('',#113,#120,#118,.T.) ;
#126=EDGE_CURVE('',#58,#120,#125,.F.) ;
#143=EDGE_CURVE('',#113,#82,#142,.T.) ;
#148=EDGE_CURVE('',#120,#84,#147,.T.) ;
#169=EDGE_CURVE('',#166,#168,#164,.T.) ;
#176=EDGE_CURVE('',#168,#175,#173,.T.) ;
#183=EDGE_CURVE('',#175,#182,#180,.T.) ;
#188=EDGE_CURVE('',#182,#166,#187,.T.) ;
#203=EDGE_CURVE('',#200,#202,#198,.T.) ;
#210=EDGE_CURVE('',#209,#200,#207,.F.) ;
#217=EDGE_CURVE('',#216,#209,#214,.T.) ;
#222=EDGE_CURVE('',#202,#216,#221,.F.) ;
#237=EDGE_CURVE('',#234,#236,#232,.T.) ;
#244=EDGE_CURVE('',#243,#234,#241,.F.) ;
#251=EDGE_CURVE('',#250,#243,#248,.T.) ;
#256=EDGE_CURVE('',#236,#250,#255,.F.) ;
#283=EDGE_CURVE('',#280,#282,#278,.T.) ;
#290=EDGE_CURVE('',#289,#280,#287,.T.) ;
#297=EDGE_CURVE('',#296,#289,#294,.T.) ;
#302=EDGE_CURVE('',#282,#296,#301,.T.) ;
#317=EDGE_CURVE('',#314,#316,#312,.F.) ;
#324=EDGE_CURVE('',#316,#323,#321,.T.) ;
#331=EDGE_CURVE('',#323,#330,#328,.F.) ;
#336=EDGE_CURVE('',#330,#314,#335,.T.) ;
#351=EDGE_CURVE('',#348,#350,#346,.F.) ;
#358=EDGE_CURVE('',#350,#357,#355,.T.) ;
#365=EDGE_CURVE('',#357,#364,#362,.F.) ;
#370=EDGE_CURVE('',#364,#348,#369,.T.) ;
#393=EDGE_CURVE('',#280,#182,#392,.T.) ;
#398=EDGE_CURVE('',#282,#166,#397,.T.) ;
#415=EDGE_CURVE('',#289,#175,#414,.T.) ;
#432=EDGE_CURVE('',#296,#168,#431,.T.) ;
#461=EDGE_CURVE('',#250,#350,#460,.F.) ;
#466=EDGE_CURVE('',#243,#357,#465,.F.) ;
#478=EDGE_CURVE('',#236,#348,#477,.T.) ;
#490=EDGE_CURVE('',#234,#364,#489,.T.) ;
#519=EDGE_CURVE('',#216,#316,#518,.F.) ;
#524=EDGE_CURVE('',#209,#323,#523,.F.) ;
#536=EDGE_CURVE('',#202,#314,#535,.T.) ;
#548=EDGE_CURVE('',#200,#330,#547,.T.) ;
#65=EDGE_LOOP('',(#66,#67,#68,#69)) ;
#96=EDGE_LOOP('',(#97,#98,#99,#100)) ;
#127=EDGE_LOOP('',(#128,#129,#130,#131)) ;
#149=EDGE_LOOP('',(#150,#151,#152,#153)) ;
#189=EDGE_LOOP('',(#190,#191,#192,#193)) ;
#223=EDGE_LOOP('',(#224,#225,#226,#227)) ;
#257=EDGE_LOOP('',(#258,#259,#260,#261)) ;
#263=EDGE_LOOP('',(#264,#265,#266,#267)) ;
#303=EDGE_LOOP('',(#304,#305,#306,#307)) ;
#337=EDGE_LOOP('',(#338,#339,#340,#341)) ;
#371=EDGE_LOOP('',(#372,#373,#374,#375)) ;
#377=EDGE_LOOP('',(#378,#379,#380,#381)) ;
#399=EDGE_LOOP('',(#400,#401,#402,#403)) ;
#416=EDGE_LOOP('',(#417,#418,#419,#420)) ;
#433=EDGE_LOOP('',(#434,#435,#436,#437)) ;
#445=EDGE_LOOP('',(#446,#447,#448,#449)) ;
#467=EDGE_LOOP('',(#468,#469,#470,#471)) ;
#479=EDGE_LOOP('',(#480,#481,#482,#483)) ;
#491=EDGE_LOOP('',(#492,#493,#494,#495)) ;
#503=EDGE_LOOP('',(#504,#505,#506,#507)) ;
#525=EDGE_LOOP('',(#526,#527,#528,#529)) ;
#537=EDGE_LOOP('',(#538,#539,#540,#541)) ;
#549=EDGE_LOOP('',(#550,#551,#552,#553)) ;
#561=EDGE_LOOP('',(#562,#563,#564,#565)) ;
#70=FACE_OUTER_BOUND('',#65,.T.) ;
#101=FACE_OUTER_BOUND('',#96,.T.) ;
#132=FACE_OUTER_BOUND('',#127,.T.) ;
#154=FACE_OUTER_BOUND('',#149,.T.) ;
#194=FACE_OUTER_BOUND('',#189,.T.) ;
#308=FACE_OUTER_BOUND('',#303,.T.) ;
#404=FACE_OUTER_BOUND('',#399,.T.) ;
#421=FACE_OUTER_BOUND('',#416,.T.) ;
#438=FACE_OUTER_BOUND('',#433,.T.) ;
#450=FACE_OUTER_BOUND('',#445,.T.) ;
#472=FACE_OUTER_BOUND('',#467,.T.) ;
#484=FACE_OUTER_BOUND('',#479,.T.) ;
#496=FACE_OUTER_BOUND('',#491,.T.) ;
#508=FACE_OUTER_BOUND('',#503,.T.) ;
#530=FACE_OUTER_BOUND('',#525,.T.) ;
#542=FACE_OUTER_BOUND('',#537,.T.) ;
#554=FACE_OUTER_BOUND('',#549,.T.) ;
#566=FACE_OUTER_BOUND('',#561,.T.) ;
#40=LINE('Line',#37,#39) ;
#56=LINE('Line',#53,#55) ;
#80=LINE('Line',#77,#79) ;
#89=LINE('Line',#86,#88) ;
#94=LINE('Line',#91,#93) ;
#111=LINE('Line',#108,#110) ;
#118=LINE('Line',#115,#117) ;
#125=LINE('Line',#122,#124) ;
#164=LINE('Line',#161,#163) ;
#173=LINE('Line',#170,#172) ;
#180=LINE('Line',#177,#179) ;
#187=LINE('Line',#184,#186) ;
#207=LINE('Line',#204,#206) ;
#221=LINE('Line',#218,#220) ;
#241=LINE('Line',#238,#240) ;
#255=LINE('Line',#252,#254) ;
#278=LINE('Line',#275,#277) ;
#287=LINE('Line',#284,#286) ;
#294=LINE('Line',#291,#293) ;
#301=LINE('Line',#298,#300) ;
#312=LINE('Line',#309,#311) ;
#328=LINE('Line',#325,#327) ;
#346=LINE('Line',#343,#345) ;
#362=LINE('Line',#359,#361) ;
#392=LINE('Line',#389,#391) ;
#397=LINE('Line',#394,#396) ;
#414=LINE('Line',#411,#413) ;
#431=LINE('Line',#428,#430) ;
#460=LINE('Line',#457,#459) ;
#465=LINE('Line',#462,#464) ;
#477=LINE('Line',#474,#476) ;
#489=LINE('Line',#486,#488) ;
#518=LINE('Line',#515,#517) ;
#523=LINE('Line',#520,#522) ;
#535=LINE('Line',#532,#534) ;
#547=LINE('Line',#544,#546) ;
#76=PLANE('',#75) ;
#107=PLANE('',#106) ;
#160=PLANE('',#159) ;
#274=PLANE('',#273) ;
#388=PLANE('',#387) ;
#410=PLANE('',#409) ;
#427=PLANE('',#426) ;
#444=PLANE('',#443) ;
#9=PRODUCT_CATEGORY_RELATIONSHIP(' ',' ',#7,#8) ;
#6=PRODUCT_DEFINITION_FORMATION_WITH_SPECIFIED_SOURCE('',' ',#5,.NOT_KNOWN.) ;
#20=SHAPE_DEFINITION_REPRESENTATION(#11,#19) ;
#42=VERTEX_POINT('',#41) ;
#44=VERTEX_POINT('',#43) ;
#51=VERTEX_POINT('',#50) ;
#58=VERTEX_POINT('',#57) ;
#82=VERTEX_POINT('',#81) ;
#84=VERTEX_POINT('',#83) ;
#113=VERTEX_POINT('',#112) ;
#120=VERTEX_POINT('',#119) ;
#166=VERTEX_POINT('',#165) ;
#168=VERTEX_POINT('',#167) ;
#175=VERTEX_POINT('',#174) ;
#182=VERTEX_POINT('',#181) ;
#200=VERTEX_POINT('',#199) ;
#202=VERTEX_POINT('',#201) ;
#209=VERTEX_POINT('',#208) ;
#216=VERTEX_POINT('',#215) ;
#234=VERTEX_POINT('',#233) ;
#236=VERTEX_POINT('',#235) ;
#243=VERTEX_POINT('',#242) ;
#250=VERTEX_POINT('',#249) ;
#280=VERTEX_POINT('',#279) ;
#282=VERTEX_POINT('',#281) ;
#289=VERTEX_POINT('',#288) ;
#296=VERTEX_POINT('',#295) ;
#314=VERTEX_POINT('',#313) ;
#316=VERTEX_POINT('',#315) ;
#323=VERTEX_POINT('',#322) ;
#330=VERTEX_POINT('',#329) ;
#348=VERTEX_POINT('',#347) ;
#350=VERTEX_POINT('',#349) ;
#357=VERTEX_POINT('',#356) ;
#364=VERTEX_POINT('',#363) ;
#12=(LENGTH_UNIT()NAMED_UNIT(*)SI_UNIT(.MILLI.,.METRE.)) ;
#13=(NAMED_UNIT(*)PLANE_ANGLE_UNIT()SI_UNIT($,.RADIAN.)) ;
#14=(NAMED_UNIT(*)SI_UNIT($,.STERADIAN.)SOLID_ANGLE_UNIT()) ;
#16=(GEOMETRIC_REPRESENTATION_CONTEXT(3)GLOBAL_UNCERTAINTY_ASSIGNED_CONTEXT((#15))GLOBAL_UNIT_ASSIGNED_CONTEXT((#12,#13,#14))REPRESENTATION_CONTEXT(' ',' ')) ;
ENDSEC;
END-ISO-10303-21;
