ISO-10303-21;
HEADER;
FILE_DESCRIPTION(('CATIA V5 STEP Exchange','CAx-IF Rec.Pracs.--- Model Styling and Organization---1.4--- 2014-01-23'),'2;1');

FILE_NAME ('001825-3_2', '2022-06-09T08:44:09+00:00', ('none'), ('Weidmueller'), 'CATIA Version 5-6 Release 2016 SP3 HF44', 'CATIA V5 STEP AP214', 'none');

FILE_SCHEMA(('AUTOMOTIVE_DESIGN { 1 0 10303 214 1 1 1 1 }'));

ENDSEC;
DATA;
#5=PRODUCT('0340560000','','',(#2)) ;
#2=PRODUCT_CONTEXT(' ',#1,'mechanical') ;
#1=APPLICATION_CONTEXT('automotive design') ;
#10=PRODUCT_DEFINITION('',' ',#6,#3) ;
#3=PRODUCT_DEFINITION_CONTEXT('part definition',#1,' ') ;
#11=PRODUCT_DEFINITION_SHAPE(' ',' ',#10) ;
#482=MECHANICAL_DESIGN_GEOMETRIC_PRESENTATION_REPRESENTATION(' ',(#29),#16) ;
#483=MECHANICAL_DESIGN_GEOMETRIC_PRESENTATION_REPRESENTATION(' ',(#479),#16) ;
#19=SHAPE_REPRESENTATION(' ',(#18),#16) ;
#18=AXIS2_PLACEMENT_3D(' ',#17,$,$) ;
#35=AXIS2_PLACEMENT_3D('Plane Axis2P3D',#32,#33,#34) ;
#39=AXIS2_PLACEMENT_3D('Circle Axis2P3D',#37,#38,$) ;
#48=AXIS2_PLACEMENT_3D('Circle Axis2P3D',#46,#47,$) ;
#59=AXIS2_PLACEMENT_3D('Torus Axis2P3D',#56,#57,#58) ;
#63=AXIS2_PLACEMENT_3D('Circle Axis2P3D',#61,#62,$) ;
#72=AXIS2_PLACEMENT_3D('Circle Axis2P3D',#70,#71,$) ;
#79=AXIS2_PLACEMENT_3D('Circle Axis2P3D',#77,#78,$) ;
#86=AXIS2_PLACEMENT_3D('Circle Axis2P3D',#84,#85,$) ;
#98=AXIS2_PLACEMENT_3D('Circle Axis2P3D',#96,#97,$) ;
#103=AXIS2_PLACEMENT_3D('Circle Axis2P3D',#101,#102,$) ;
#116=AXIS2_PLACEMENT_3D('Cone Axis2P3D',#113,#114,#115) ;
#127=AXIS2_PLACEMENT_3D('Circle Axis2P3D',#125,#126,$) ;
#146=AXIS2_PLACEMENT_3D('Circle Axis2P3D',#144,#145,$) ;
#159=AXIS2_PLACEMENT_3D('Plane Axis2P3D',#156,#157,#158) ;
#217=AXIS2_PLACEMENT_3D('Circle Axis2P3D',#215,#216,$) ;
#226=AXIS2_PLACEMENT_3D('Circle Axis2P3D',#224,#225,$) ;
#237=AXIS2_PLACEMENT_3D('Plane Axis2P3D',#234,#235,#236) ;
#268=AXIS2_PLACEMENT_3D('Plane Axis2P3D',#265,#266,#267) ;
#292=AXIS2_PLACEMENT_3D('Plane Axis2P3D',#289,#290,#291) ;
#316=AXIS2_PLACEMENT_3D('Plane Axis2P3D',#313,#314,#315) ;
#340=AXIS2_PLACEMENT_3D('Plane Axis2P3D',#337,#338,#339) ;
#364=AXIS2_PLACEMENT_3D('Plane Axis2P3D',#361,#362,#363) ;
#381=AXIS2_PLACEMENT_3D('Cone Axis2P3D',#378,#379,#380) ;
#385=AXIS2_PLACEMENT_3D('Circle Axis2P3D',#383,#384,$) ;
#411=AXIS2_PLACEMENT_3D('Circle Axis2P3D',#409,#410,$) ;
#424=AXIS2_PLACEMENT_3D('Plane Axis2P3D',#421,#422,#423) ;
#438=AXIS2_PLACEMENT_3D('Torus Axis2P3D',#435,#436,#437) ;
#442=AXIS2_PLACEMENT_3D('Circle Axis2P3D',#440,#441,$) ;
#447=AXIS2_PLACEMENT_3D('Circle Axis2P3D',#445,#446,$) ;
#474=AXIS2_PLACEMENT_3D('Achsensystem.3',#471,#472,#473) ;
#17=CARTESIAN_POINT(' ',(0.,0.,0.)) ;
#32=CARTESIAN_POINT('Axis2P3D Location',(0.,11.25,2.44361292716E-016)) ;
#37=CARTESIAN_POINT('Axis2P3D Location',(8.41944674414E-016,1.6,4.1)) ;
#41=CARTESIAN_POINT('Vertex',(1.92955840195E-009,0.941813078582,4.45956915395)) ;
#43=CARTESIAN_POINT('Vertex',(1.9295581799E-009,2.25818692142,3.74043084605)) ;
#46=CARTESIAN_POINT('Axis2P3D Location',(8.41944674414E-016,1.6,4.1)) ;
#56=CARTESIAN_POINT('Axis2P3D Location',(0.49072276,20.9,4.1)) ;
#61=CARTESIAN_POINT('Axis2P3D Location',(1.92955729172E-009,20.9,4.1)) ;
#65=CARTESIAN_POINT('Vertex',(1.92955751377E-009,20.2418130786,4.45956915395)) ;
#67=CARTESIAN_POINT('Vertex',(1.92955729172E-009,21.5581869214,3.74043084605)) ;
#70=CARTESIAN_POINT('Axis2P3D Location',(0.49072276,20.325947458,4.41360633299)) ;
#74=CARTESIAN_POINT('Vertex',(0.516890738121,19.8877575253,4.65299058428)) ;
#77=CARTESIAN_POINT('Axis2P3D Location',(0.516890738121,20.9,4.1)) ;
#81=CARTESIAN_POINT('Vertex',(0.516890738121,21.9122424747,3.54700941572)) ;
#84=CARTESIAN_POINT('Axis2P3D Location',(0.49072276,21.474052542,3.78639366701)) ;
#96=CARTESIAN_POINT('Axis2P3D Location',(1.92955729172E-009,20.9,4.1)) ;
#101=CARTESIAN_POINT('Axis2P3D Location',(0.516890738121,20.9,4.1)) ;
#113=CARTESIAN_POINT('Axis2P3D Location',(2.49072276,20.9,4.1)) ;
#118=CARTESIAN_POINT('Line Origine',(1.50380674906,19.9331479176,4.6281936999)) ;
#122=CARTESIAN_POINT('Vertex',(2.49072276,19.97853831,4.60339681553)) ;
#125=CARTESIAN_POINT('Axis2P3D Location',(2.49072276,20.9,4.1)) ;
#129=CARTESIAN_POINT('Vertex',(2.49072276,21.82146169,3.59660318447)) ;
#132=CARTESIAN_POINT('Line Origine',(1.50380674906,21.8668520824,3.5718063001)) ;
#144=CARTESIAN_POINT('Axis2P3D Location',(2.49072276,20.9,4.1)) ;
#156=CARTESIAN_POINT('Axis2P3D Location',(2.49072276,11.25,9.18485099361E-017)) ;
#161=CARTESIAN_POINT('Line Origine',(2.49072276,21.8652228694,15.9)) ;
#165=CARTESIAN_POINT('Vertex',(2.49072276,21.2304457389,19.5)) ;
#167=CARTESIAN_POINT('Vertex',(2.49072276,22.5,12.3)) ;
#170=CARTESIAN_POINT('Line Origine',(2.49072276,22.5,6.15)) ;
#174=CARTESIAN_POINT('Vertex',(2.49072276,22.5,9.18485099361E-017)) ;
#177=CARTESIAN_POINT('Line Origine',(2.49072276,11.25,9.18485099361E-017)) ;
#181=CARTESIAN_POINT('Vertex',(2.49072276,0.,9.18485099361E-017)) ;
#184=CARTESIAN_POINT('Line Origine',(2.49072276,2.30588066584E-032,6.15)) ;
#188=CARTESIAN_POINT('Vertex',(2.49072276,4.61176133169E-032,12.3)) ;
#191=CARTESIAN_POINT('Line Origine',(2.49072276,0.63477713055,15.9)) ;
#195=CARTESIAN_POINT('Vertex',(2.49072276,1.2695542611,19.5)) ;
#198=CARTESIAN_POINT('Line Origine',(2.49072276,11.25,19.5)) ;
#215=CARTESIAN_POINT('Axis2P3D Location',(2.49072276,1.6,4.1)) ;
#219=CARTESIAN_POINT('Vertex',(2.49072276,2.52146168998,3.59660318447)) ;
#221=CARTESIAN_POINT('Vertex',(2.49072276,0.678538310015,4.60339681553)) ;
#224=CARTESIAN_POINT('Axis2P3D Location',(2.49072276,1.6,4.1)) ;
#234=CARTESIAN_POINT('Axis2P3D Location',(3.99072276,2.14359353945,19.5)) ;
#239=CARTESIAN_POINT('Line Origine',(3.24072276,1.2695542611,19.5)) ;
#243=CARTESIAN_POINT('Vertex',(3.99072276,1.2695542611,19.5)) ;
#246=CARTESIAN_POINT('Line Origine',(3.99072276,11.25,19.5)) ;
#250=CARTESIAN_POINT('Vertex',(3.99072276,21.2304457389,19.5)) ;
#253=CARTESIAN_POINT('Line Origine',(3.24072276,21.2304457389,19.5)) ;
#265=CARTESIAN_POINT('Axis2P3D Location',(3.99072276,7.1054273576E-015,12.3)) ;
#270=CARTESIAN_POINT('Line Origine',(3.24072276,7.05950310263E-015,12.3)) ;
#274=CARTESIAN_POINT('Vertex',(3.99072276,4.61176133169E-032,12.3)) ;
#277=CARTESIAN_POINT('Line Origine',(3.99072276,0.63477713055,15.9)) ;
#289=CARTESIAN_POINT('Axis2P3D Location',(3.99072276,0.,0.)) ;
#294=CARTESIAN_POINT('Line Origine',(3.99072276,2.30588066584E-032,6.15)) ;
#298=CARTESIAN_POINT('Vertex',(3.99072276,0.,0.)) ;
#301=CARTESIAN_POINT('Line Origine',(3.24072276,-4.5924254968E-017,4.5924254968E-017)) ;
#313=CARTESIAN_POINT('Axis2P3D Location',(3.99072276,22.5,0.)) ;
#318=CARTESIAN_POINT('Line Origine',(3.24072276,22.5,4.5924254968E-017)) ;
#322=CARTESIAN_POINT('Vertex',(3.99072276,22.5,0.)) ;
#325=CARTESIAN_POINT('Line Origine',(3.99072276,11.25,0.)) ;
#337=CARTESIAN_POINT('Axis2P3D Location',(3.99072276,22.5,0.)) ;
#342=CARTESIAN_POINT('Line Origine',(3.24072276,22.5,12.3)) ;
#346=CARTESIAN_POINT('Vertex',(3.99072276,22.5,12.3)) ;
#349=CARTESIAN_POINT('Line Origine',(3.99072276,22.5,6.15)) ;
#361=CARTESIAN_POINT('Axis2P3D Location',(3.99072276,22.5,12.3)) ;
#366=CARTESIAN_POINT('Line Origine',(3.99072276,21.8652228694,15.9)) ;
#378=CARTESIAN_POINT('Axis2P3D Location',(2.49072276,1.6,4.1)) ;
#383=CARTESIAN_POINT('Axis2P3D Location',(0.516890738121,1.6,4.1)) ;
#387=CARTESIAN_POINT('Vertex',(0.516890738121,0.587757525262,4.65299058428)) ;
#389=CARTESIAN_POINT('Vertex',(0.516890738121,2.61224247474,3.54700941572)) ;
#392=CARTESIAN_POINT('Line Origine',(1.50380674906,0.633147917638,4.6281936999)) ;
#397=CARTESIAN_POINT('Line Origine',(1.50380674906,2.56685208236,3.5718063001)) ;
#409=CARTESIAN_POINT('Axis2P3D Location',(0.516890738121,1.6,4.1)) ;
#421=CARTESIAN_POINT('Axis2P3D Location',(3.99072276,11.25,0.)) ;
#435=CARTESIAN_POINT('Axis2P3D Location',(0.49072276,1.6,4.1)) ;
#440=CARTESIAN_POINT('Axis2P3D Location',(0.49072276,1.02594745801,4.41360633299)) ;
#445=CARTESIAN_POINT('Axis2P3D Location',(0.49072276,2.17405254199,3.78639366701)) ;
#471=CARTESIAN_POINT('Axis2P3D Location',(0.,0.,0.)) ;
#33=DIRECTION('Axis2P3D Direction',(-1.,-6.12323399574E-017,6.12323399574E-017)) ;
#34=DIRECTION('Axis2P3D XDirection',(6.12323399574E-017,-1.,0.)) ;
#38=DIRECTION('Axis2P3D Direction',(-1.,-6.12323399574E-017,6.12323399574E-017)) ;
#47=DIRECTION('Axis2P3D Direction',(-1.,-6.12323399574E-017,6.12323399574E-017)) ;
#57=DIRECTION('Axis2P3D Direction',(-1.,-6.12323399574E-017,1.22464679915E-016)) ;
#58=DIRECTION('Axis2P3D XDirection',(-9.62528633737E-017,0.87758256189,-0.479425538604)) ;
#62=DIRECTION('Axis2P3D Direction',(-1.,-6.12323399574E-017,1.22464679915E-016)) ;
#71=DIRECTION('Axis2P3D Direction',(-7.81165199766E-017,-0.479425538604,-0.87758256189)) ;
#78=DIRECTION('Axis2P3D Direction',(-1.,-6.12323399574E-017,1.22464679915E-016)) ;
#85=DIRECTION('Axis2P3D Direction',(7.81165199766E-017,0.479425538604,0.87758256189)) ;
#97=DIRECTION('Axis2P3D Direction',(-1.,-6.12323399574E-017,1.22464679915E-016)) ;
#102=DIRECTION('Axis2P3D Direction',(-1.,-6.12323399574E-017,1.22464679915E-016)) ;
#114=DIRECTION('Axis2P3D Direction',(-1.,-6.12323399574E-017,1.22464679915E-016)) ;
#115=DIRECTION('Axis2P3D XDirection',(0.,0.87758256189,-0.479425538604)) ;
#119=DIRECTION('Vector Direction',(-0.998629534755,-0.0459291225587,0.0250911940101)) ;
#126=DIRECTION('Axis2P3D Direction',(-1.,-6.12323399574E-017,1.22464679915E-016)) ;
#133=DIRECTION('Vector Direction',(-0.998629534755,0.0459291225587,-0.0250911940101)) ;
#145=DIRECTION('Axis2P3D Direction',(-1.,-6.12323399574E-017,1.22464679915E-016)) ;
#157=DIRECTION('Axis2P3D Direction',(1.,6.12323399574E-017,-6.12323399574E-017)) ;
#158=DIRECTION('Axis2P3D XDirection',(-6.12323399574E-017,1.,0.)) ;
#162=DIRECTION('Vector Direction',(1.21484026914E-016,-0.173648177667,0.984807753012)) ;
#171=DIRECTION('Vector Direction',(7.22096276179E-017,0.,1.)) ;
#178=DIRECTION('Vector Direction',(7.89491928622E-017,-1.,0.)) ;
#185=DIRECTION('Vector Direction',(7.22096276179E-017,3.74939945665E-033,1.)) ;
#192=DIRECTION('Vector Direction',(0.,0.173648177667,0.984807753012)) ;
#199=DIRECTION('Vector Direction',(-4.44959294873E-017,1.,0.)) ;
#216=DIRECTION('Axis2P3D Direction',(1.,6.12323399574E-017,-6.12323399574E-017)) ;
#225=DIRECTION('Axis2P3D Direction',(1.,6.12323399574E-017,-6.12323399574E-017)) ;
#235=DIRECTION('Axis2P3D Direction',(6.12323399574E-017,3.74939945665E-033,1.)) ;
#236=DIRECTION('Axis2P3D XDirection',(-6.12323399574E-017,1.,0.)) ;
#240=DIRECTION('Vector Direction',(-1.,0.,0.)) ;
#247=DIRECTION('Vector Direction',(6.6743894231E-017,-1.,0.)) ;
#254=DIRECTION('Vector Direction',(-1.,0.,0.)) ;
#266=DIRECTION('Axis2P3D Direction',(7.0934967373E-017,-0.984807753012,0.173648177667)) ;
#267=DIRECTION('Axis2P3D XDirection',(4.96691988772E-017,0.173648177667,0.984807753012)) ;
#271=DIRECTION('Vector Direction',(-1.,-6.12323399574E-017,0.)) ;
#278=DIRECTION('Vector Direction',(6.07420134569E-017,0.173648177667,0.984807753012)) ;
#290=DIRECTION('Axis2P3D Direction',(6.12323399574E-017,-1.,0.)) ;
#291=DIRECTION('Axis2P3D XDirection',(6.12323399574E-017,3.74939945665E-033,1.)) ;
#295=DIRECTION('Vector Direction',(7.22096276179E-017,3.74939945665E-033,1.)) ;
#302=DIRECTION('Vector Direction',(-1.,-6.12323399574E-017,6.12323399574E-017)) ;
#314=DIRECTION('Axis2P3D Direction',(-6.12323399574E-017,-3.74939945665E-033,-1.)) ;
#315=DIRECTION('Axis2P3D XDirection',(6.12323399574E-017,-1.,0.)) ;
#319=DIRECTION('Vector Direction',(-1.,0.,6.12323399574E-017)) ;
#326=DIRECTION('Vector Direction',(5.92118946467E-017,-1.,0.)) ;
#338=DIRECTION('Axis2P3D Direction',(6.12323399574E-017,-1.,0.)) ;
#339=DIRECTION('Axis2P3D XDirection',(6.12323399574E-017,3.74939945665E-033,1.)) ;
#343=DIRECTION('Vector Direction',(-1.,0.,0.)) ;
#350=DIRECTION('Vector Direction',(7.22096276179E-017,0.,1.)) ;
#362=DIRECTION('Axis2P3D Direction',(4.96691988772E-017,-0.984807753012,-0.173648177667)) ;
#363=DIRECTION('Axis2P3D XDirection',(7.0934967373E-017,-0.173648177667,0.984807753012)) ;
#367=DIRECTION('Vector Direction',(6.07420134569E-017,-0.173648177667,0.984807753012)) ;
#379=DIRECTION('Axis2P3D Direction',(-1.,-6.12323399574E-017,1.22464679915E-016)) ;
#380=DIRECTION('Axis2P3D XDirection',(0.,0.87758256189,-0.479425538604)) ;
#384=DIRECTION('Axis2P3D Direction',(-1.,-6.12323399574E-017,1.22464679915E-016)) ;
#393=DIRECTION('Vector Direction',(-0.998629534755,-0.0459291225587,0.0250911940101)) ;
#398=DIRECTION('Vector Direction',(-0.998629534755,0.0459291225587,-0.0250911940101)) ;
#410=DIRECTION('Axis2P3D Direction',(-1.,-6.12323399574E-017,1.22464679915E-016)) ;
#422=DIRECTION('Axis2P3D Direction',(1.,6.12323399574E-017,-6.12323399574E-017)) ;
#423=DIRECTION('Axis2P3D XDirection',(-6.12323399574E-017,1.,0.)) ;
#436=DIRECTION('Axis2P3D Direction',(-1.,-6.12323399574E-017,1.22464679915E-016)) ;
#437=DIRECTION('Axis2P3D XDirection',(-9.62528633737E-017,0.87758256189,-0.479425538604)) ;
#441=DIRECTION('Axis2P3D Direction',(-7.81165199766E-017,-0.479425538604,-0.87758256189)) ;
#446=DIRECTION('Axis2P3D Direction',(7.81165199766E-017,0.479425538604,0.87758256189)) ;
#472=DIRECTION('Axis2P3D Direction',(0.,0.,1.)) ;
#473=DIRECTION('Axis2P3D XDirection',(1.,0.,0.)) ;
#30=PRESENTATION_LAYER_ASSIGNMENT('1',' ',(#21)) ;
#8=PRODUCT_RELATED_PRODUCT_CATEGORY('part',$,(#5)) ;
#7=PRODUCT_CATEGORY('part','specification') ;
#29=STYLED_ITEM(' ',(#28),#21) ;
#479=STYLED_ITEM(' ',(#478),#474) ;
#28=PRESENTATION_STYLE_ASSIGNMENT((#27)) ;
#478=PRESENTATION_STYLE_ASSIGNMENT((#477)) ;
#477=CURVE_STYLE(' ',#475,POSITIVE_LENGTH_MEASURE(0.129999995232),#476) ;
#27=SURFACE_STYLE_USAGE(.BOTH.,#26) ;
#26=SURFACE_SIDE_STYLE(' ',(#25)) ;
#25=SURFACE_STYLE_FILL_AREA(#24) ;
#24=FILL_AREA_STYLE(' ',(#23)) ;
#23=FILL_AREA_STYLE_COLOUR(' ',#22) ;
#120=VECTOR('Line Direction',#119,1.) ;
#134=VECTOR('Line Direction',#133,1.) ;
#163=VECTOR('Line Direction',#162,1.) ;
#172=VECTOR('Line Direction',#171,1.) ;
#179=VECTOR('Line Direction',#178,1.) ;
#186=VECTOR('Line Direction',#185,1.) ;
#193=VECTOR('Line Direction',#192,1.) ;
#200=VECTOR('Line Direction',#199,1.) ;
#241=VECTOR('Line Direction',#240,1.) ;
#248=VECTOR('Line Direction',#247,1.) ;
#255=VECTOR('Line Direction',#254,1.) ;
#272=VECTOR('Line Direction',#271,1.) ;
#279=VECTOR('Line Direction',#278,1.) ;
#296=VECTOR('Line Direction',#295,1.) ;
#303=VECTOR('Line Direction',#302,1.) ;
#320=VECTOR('Line Direction',#319,1.) ;
#327=VECTOR('Line Direction',#326,1.) ;
#344=VECTOR('Line Direction',#343,1.) ;
#351=VECTOR('Line Direction',#350,1.) ;
#368=VECTOR('Line Direction',#367,1.) ;
#394=VECTOR('Line Direction',#393,1.) ;
#399=VECTOR('Line Direction',#398,1.) ;
#15=UNCERTAINTY_MEASURE_WITH_UNIT(LENGTH_MEASURE(0.005),#12,'distance_accuracy_value','CONFUSED CURVE UNCERTAINTY') ;
#470=SHAPE_REPRESENTATION_RELATIONSHIP(' ',' ',#19,#469) ;
#52=ORIENTED_EDGE('',*,*,#45,.T.) ;
#53=ORIENTED_EDGE('',*,*,#50,.T.) ;
#90=ORIENTED_EDGE('',*,*,#69,.F.) ;
#91=ORIENTED_EDGE('',*,*,#76,.T.) ;
#92=ORIENTED_EDGE('',*,*,#83,.T.) ;
#93=ORIENTED_EDGE('',*,*,#88,.F.) ;
#107=ORIENTED_EDGE('',*,*,#100,.F.) ;
#108=ORIENTED_EDGE('',*,*,#88,.T.) ;
#109=ORIENTED_EDGE('',*,*,#105,.T.) ;
#110=ORIENTED_EDGE('',*,*,#76,.F.) ;
#138=ORIENTED_EDGE('',*,*,#83,.F.) ;
#139=ORIENTED_EDGE('',*,*,#124,.T.) ;
#140=ORIENTED_EDGE('',*,*,#131,.T.) ;
#141=ORIENTED_EDGE('',*,*,#136,.F.) ;
#150=ORIENTED_EDGE('',*,*,#105,.F.) ;
#151=ORIENTED_EDGE('',*,*,#136,.T.) ;
#152=ORIENTED_EDGE('',*,*,#148,.T.) ;
#153=ORIENTED_EDGE('',*,*,#124,.F.) ;
#204=ORIENTED_EDGE('',*,*,#169,.T.) ;
#205=ORIENTED_EDGE('',*,*,#176,.F.) ;
#206=ORIENTED_EDGE('',*,*,#183,.F.) ;
#207=ORIENTED_EDGE('',*,*,#190,.F.) ;
#208=ORIENTED_EDGE('',*,*,#197,.T.) ;
#209=ORIENTED_EDGE('',*,*,#202,.F.) ;
#212=ORIENTED_EDGE('',*,*,#148,.F.) ;
#213=ORIENTED_EDGE('',*,*,#131,.F.) ;
#230=ORIENTED_EDGE('',*,*,#223,.F.) ;
#231=ORIENTED_EDGE('',*,*,#228,.F.) ;
#259=ORIENTED_EDGE('',*,*,#245,.F.) ;
#260=ORIENTED_EDGE('',*,*,#252,.F.) ;
#261=ORIENTED_EDGE('',*,*,#257,.T.) ;
#262=ORIENTED_EDGE('',*,*,#202,.T.) ;
#283=ORIENTED_EDGE('',*,*,#276,.F.) ;
#284=ORIENTED_EDGE('',*,*,#281,.T.) ;
#285=ORIENTED_EDGE('',*,*,#245,.T.) ;
#286=ORIENTED_EDGE('',*,*,#197,.F.) ;
#307=ORIENTED_EDGE('',*,*,#300,.F.) ;
#308=ORIENTED_EDGE('',*,*,#276,.T.) ;
#309=ORIENTED_EDGE('',*,*,#190,.T.) ;
#310=ORIENTED_EDGE('',*,*,#305,.F.) ;
#331=ORIENTED_EDGE('',*,*,#183,.T.) ;
#332=ORIENTED_EDGE('',*,*,#324,.F.) ;
#333=ORIENTED_EDGE('',*,*,#329,.F.) ;
#334=ORIENTED_EDGE('',*,*,#305,.T.) ;
#355=ORIENTED_EDGE('',*,*,#348,.F.) ;
#356=ORIENTED_EDGE('',*,*,#353,.F.) ;
#357=ORIENTED_EDGE('',*,*,#324,.T.) ;
#358=ORIENTED_EDGE('',*,*,#176,.T.) ;
#372=ORIENTED_EDGE('',*,*,#257,.F.) ;
#373=ORIENTED_EDGE('',*,*,#370,.T.) ;
#374=ORIENTED_EDGE('',*,*,#348,.T.) ;
#375=ORIENTED_EDGE('',*,*,#169,.F.) ;
#403=ORIENTED_EDGE('',*,*,#391,.F.) ;
#404=ORIENTED_EDGE('',*,*,#396,.T.) ;
#405=ORIENTED_EDGE('',*,*,#228,.T.) ;
#406=ORIENTED_EDGE('',*,*,#401,.F.) ;
#415=ORIENTED_EDGE('',*,*,#413,.F.) ;
#416=ORIENTED_EDGE('',*,*,#401,.T.) ;
#417=ORIENTED_EDGE('',*,*,#223,.T.) ;
#418=ORIENTED_EDGE('',*,*,#396,.F.) ;
#427=ORIENTED_EDGE('',*,*,#353,.T.) ;
#428=ORIENTED_EDGE('',*,*,#370,.F.) ;
#429=ORIENTED_EDGE('',*,*,#252,.T.) ;
#430=ORIENTED_EDGE('',*,*,#281,.F.) ;
#431=ORIENTED_EDGE('',*,*,#300,.T.) ;
#432=ORIENTED_EDGE('',*,*,#329,.T.) ;
#451=ORIENTED_EDGE('',*,*,#45,.F.) ;
#452=ORIENTED_EDGE('',*,*,#444,.T.) ;
#453=ORIENTED_EDGE('',*,*,#391,.T.) ;
#454=ORIENTED_EDGE('',*,*,#449,.F.) ;
#458=ORIENTED_EDGE('',*,*,#50,.F.) ;
#459=ORIENTED_EDGE('',*,*,#449,.T.) ;
#460=ORIENTED_EDGE('',*,*,#413,.T.) ;
#461=ORIENTED_EDGE('',*,*,#444,.F.) ;
#465=ORIENTED_EDGE('',*,*,#69,.T.) ;
#466=ORIENTED_EDGE('',*,*,#100,.T.) ;
#214=FACE_BOUND('',#211,.T.) ;
#232=FACE_BOUND('',#229,.T.) ;
#31=CLOSED_SHELL('Closed Shell',(#55,#95,#112,#143,#155,#233,#264,#288,#312,#336,#360,#377,#408,#420,#434,#456,#463,#468)) ;
#469=ADVANCED_BREP_SHAPE_REPRESENTATION('NONE',(#21),#16) ;
#55=ADVANCED_FACE('K\X2\00F6\X0\rper.4 ( *SOL18 - wsp *MASTER -  )',(#54),#36,.T.) ;
#95=ADVANCED_FACE('K\X2\00F6\X0\rper.4 ( *SOL18 - wsp *MASTER -  )',(#94),#60,.T.) ;
#112=ADVANCED_FACE('K\X2\00F6\X0\rper.4 ( *SOL18 - wsp *MASTER -  )',(#111),#60,.T.) ;
#143=ADVANCED_FACE('K\X2\00F6\X0\rper.4 ( *SOL18 - wsp *MASTER -  )',(#142),#117,.T.) ;
#155=ADVANCED_FACE('K\X2\00F6\X0\rper.4 ( *SOL18 - wsp *MASTER -  )',(#154),#117,.T.) ;
#233=ADVANCED_FACE('K\X2\00F6\X0\rper.4 ( *SOL18 - wsp *MASTER -  )',(#210,#214,#232),#160,.F.) ;
#264=ADVANCED_FACE('K\X2\00F6\X0\rper.4 ( *SOL18 - wsp *MASTER -  )',(#263),#238,.T.) ;
#288=ADVANCED_FACE('K\X2\00F6\X0\rper.4 ( *SOL18 - wsp *MASTER -  )',(#287),#269,.T.) ;
#312=ADVANCED_FACE('K\X2\00F6\X0\rper.4 ( *SOL18 - wsp *MASTER -  )',(#311),#293,.T.) ;
#336=ADVANCED_FACE('K\X2\00F6\X0\rper.4 ( *SOL18 - wsp *MASTER -  )',(#335),#317,.T.) ;
#360=ADVANCED_FACE('K\X2\00F6\X0\rper.4 ( *SOL18 - wsp *MASTER -  )',(#359),#341,.F.) ;
#377=ADVANCED_FACE('K\X2\00F6\X0\rper.4 ( *SOL18 - wsp *MASTER -  )',(#376),#365,.F.) ;
#408=ADVANCED_FACE('K\X2\00F6\X0\rper.4 ( *SOL18 - wsp *MASTER -  )',(#407),#382,.T.) ;
#420=ADVANCED_FACE('K\X2\00F6\X0\rper.4 ( *SOL18 - wsp *MASTER -  )',(#419),#382,.T.) ;
#434=ADVANCED_FACE('K\X2\00F6\X0\rper.4 ( *SOL18 - wsp *MASTER -  )',(#433),#425,.T.) ;
#456=ADVANCED_FACE('K\X2\00F6\X0\rper.4 ( *SOL18 - wsp *MASTER -  )',(#455),#439,.T.) ;
#463=ADVANCED_FACE('K\X2\00F6\X0\rper.4 ( *SOL18 - wsp *MASTER -  )',(#462),#439,.T.) ;
#468=ADVANCED_FACE('K\X2\00F6\X0\rper.4 ( *SOL18 - wsp *MASTER -  )',(#467),#36,.T.) ;
#4=APPLICATION_PROTOCOL_DEFINITION('international standard','automotive_design',2001,#1) ;
#21=MANIFOLD_SOLID_BREP('K\X2\00F6\X0\rper.4 ( *SOL18 - wsp *MASTER -  )',#31) ;
#40=CIRCLE('generated circle',#39,0.75) ;
#49=CIRCLE('generated circle',#48,0.75) ;
#64=CIRCLE('generated circle',#63,0.75) ;
#73=CIRCLE('generated circle',#72,0.5) ;
#80=CIRCLE('generated circle',#79,1.15344415294) ;
#87=CIRCLE('generated circle',#86,0.5) ;
#99=CIRCLE('generated circle',#98,0.75) ;
#104=CIRCLE('generated circle',#103,1.15344415294) ;
#128=CIRCLE('generated circle',#127,1.05) ;
#147=CIRCLE('generated circle',#146,1.05) ;
#218=CIRCLE('generated circle',#217,1.05) ;
#227=CIRCLE('generated circle',#226,1.05) ;
#386=CIRCLE('generated circle',#385,1.15344415294) ;
#412=CIRCLE('generated circle',#411,1.15344415294) ;
#443=CIRCLE('generated circle',#442,0.5) ;
#448=CIRCLE('generated circle',#447,0.5) ;
#22=COLOUR_RGB('Colour',0.686274509804,0.549019607843,0.529411764706) ;
#117=CONICAL_SURFACE('Cone',#116,1.05,0.0523598775598) ;
#382=CONICAL_SURFACE('Cone',#381,1.05,0.0523598775598) ;
#480=CONSTRUCTIVE_GEOMETRY_REPRESENTATION('supplemental geometry',(#474),#16) ;
#481=CONSTRUCTIVE_GEOMETRY_REPRESENTATION_RELATIONSHIP('supplemental geometry','',#19,#480) ;
#60=TOROIDAL_SURFACE('homeo Torus',#59,0.654129385567,0.5) ;
#439=TOROIDAL_SURFACE('homeo Torus',#438,0.654129385567,0.5) ;
#476=DRAUGHTING_PRE_DEFINED_COLOUR('white') ;
#475=DRAUGHTING_PRE_DEFINED_CURVE_FONT('continuous') ;
#45=EDGE_CURVE('',#42,#44,#40,.T.) ;
#50=EDGE_CURVE('',#44,#42,#49,.T.) ;
#69=EDGE_CURVE('',#66,#68,#64,.T.) ;
#76=EDGE_CURVE('',#66,#75,#73,.F.) ;
#83=EDGE_CURVE('',#75,#82,#80,.T.) ;
#88=EDGE_CURVE('',#68,#82,#87,.F.) ;
#100=EDGE_CURVE('',#68,#66,#99,.T.) ;
#105=EDGE_CURVE('',#82,#75,#104,.T.) ;
#124=EDGE_CURVE('',#75,#123,#121,.F.) ;
#131=EDGE_CURVE('',#123,#130,#128,.T.) ;
#136=EDGE_CURVE('',#82,#130,#135,.F.) ;
#148=EDGE_CURVE('',#130,#123,#147,.T.) ;
#169=EDGE_CURVE('',#166,#168,#164,.F.) ;
#176=EDGE_CURVE('',#175,#168,#173,.T.) ;
#183=EDGE_CURVE('',#182,#175,#180,.F.) ;
#190=EDGE_CURVE('',#189,#182,#187,.F.) ;
#197=EDGE_CURVE('',#189,#196,#194,.T.) ;
#202=EDGE_CURVE('',#166,#196,#201,.F.) ;
#223=EDGE_CURVE('',#220,#222,#218,.F.) ;
#228=EDGE_CURVE('',#222,#220,#227,.F.) ;
#245=EDGE_CURVE('',#244,#196,#242,.T.) ;
#252=EDGE_CURVE('',#251,#244,#249,.T.) ;
#257=EDGE_CURVE('',#251,#166,#256,.T.) ;
#276=EDGE_CURVE('',#275,#189,#273,.T.) ;
#281=EDGE_CURVE('',#275,#244,#280,.T.) ;
#300=EDGE_CURVE('',#275,#299,#297,.F.) ;
#305=EDGE_CURVE('',#299,#182,#304,.T.) ;
#324=EDGE_CURVE('',#323,#175,#321,.T.) ;
#329=EDGE_CURVE('',#299,#323,#328,.F.) ;
#348=EDGE_CURVE('',#347,#168,#345,.T.) ;
#353=EDGE_CURVE('',#323,#347,#352,.T.) ;
#370=EDGE_CURVE('',#251,#347,#369,.F.) ;
#391=EDGE_CURVE('',#388,#390,#386,.T.) ;
#396=EDGE_CURVE('',#388,#222,#395,.F.) ;
#401=EDGE_CURVE('',#390,#220,#400,.F.) ;
#413=EDGE_CURVE('',#390,#388,#412,.T.) ;
#444=EDGE_CURVE('',#42,#388,#443,.F.) ;
#449=EDGE_CURVE('',#44,#390,#448,.F.) ;
#51=EDGE_LOOP('',(#52,#53)) ;
#89=EDGE_LOOP('',(#90,#91,#92,#93)) ;
#106=EDGE_LOOP('',(#107,#108,#109,#110)) ;
#137=EDGE_LOOP('',(#138,#139,#140,#141)) ;
#149=EDGE_LOOP('',(#150,#151,#152,#153)) ;
#203=EDGE_LOOP('',(#204,#205,#206,#207,#208,#209)) ;
#211=EDGE_LOOP('',(#212,#213)) ;
#229=EDGE_LOOP('',(#230,#231)) ;
#258=EDGE_LOOP('',(#259,#260,#261,#262)) ;
#282=EDGE_LOOP('',(#283,#284,#285,#286)) ;
#306=EDGE_LOOP('',(#307,#308,#309,#310)) ;
#330=EDGE_LOOP('',(#331,#332,#333,#334)) ;
#354=EDGE_LOOP('',(#355,#356,#357,#358)) ;
#371=EDGE_LOOP('',(#372,#373,#374,#375)) ;
#402=EDGE_LOOP('',(#403,#404,#405,#406)) ;
#414=EDGE_LOOP('',(#415,#416,#417,#418)) ;
#426=EDGE_LOOP('',(#427,#428,#429,#430,#431,#432)) ;
#450=EDGE_LOOP('',(#451,#452,#453,#454)) ;
#457=EDGE_LOOP('',(#458,#459,#460,#461)) ;
#464=EDGE_LOOP('',(#465,#466)) ;
#54=FACE_OUTER_BOUND('',#51,.T.) ;
#94=FACE_OUTER_BOUND('',#89,.T.) ;
#111=FACE_OUTER_BOUND('',#106,.T.) ;
#142=FACE_OUTER_BOUND('',#137,.T.) ;
#154=FACE_OUTER_BOUND('',#149,.T.) ;
#210=FACE_OUTER_BOUND('',#203,.T.) ;
#263=FACE_OUTER_BOUND('',#258,.T.) ;
#287=FACE_OUTER_BOUND('',#282,.T.) ;
#311=FACE_OUTER_BOUND('',#306,.T.) ;
#335=FACE_OUTER_BOUND('',#330,.T.) ;
#359=FACE_OUTER_BOUND('',#354,.T.) ;
#376=FACE_OUTER_BOUND('',#371,.T.) ;
#407=FACE_OUTER_BOUND('',#402,.T.) ;
#419=FACE_OUTER_BOUND('',#414,.T.) ;
#433=FACE_OUTER_BOUND('',#426,.T.) ;
#455=FACE_OUTER_BOUND('',#450,.T.) ;
#462=FACE_OUTER_BOUND('',#457,.T.) ;
#467=FACE_OUTER_BOUND('',#464,.T.) ;
#121=LINE('Line',#118,#120) ;
#135=LINE('Line',#132,#134) ;
#164=LINE('Line',#161,#163) ;
#173=LINE('Line',#170,#172) ;
#180=LINE('Line',#177,#179) ;
#187=LINE('Line',#184,#186) ;
#194=LINE('Line',#191,#193) ;
#201=LINE('Line',#198,#200) ;
#242=LINE('Line',#239,#241) ;
#249=LINE('Line',#246,#248) ;
#256=LINE('Line',#253,#255) ;
#273=LINE('Line',#270,#272) ;
#280=LINE('Line',#277,#279) ;
#297=LINE('Line',#294,#296) ;
#304=LINE('Line',#301,#303) ;
#321=LINE('Line',#318,#320) ;
#328=LINE('Line',#325,#327) ;
#345=LINE('Line',#342,#344) ;
#352=LINE('Line',#349,#351) ;
#369=LINE('Line',#366,#368) ;
#395=LINE('Line',#392,#394) ;
#400=LINE('Line',#397,#399) ;
#36=PLANE('',#35) ;
#160=PLANE('',#159) ;
#238=PLANE('',#237) ;
#269=PLANE('',#268) ;
#293=PLANE('',#292) ;
#317=PLANE('',#316) ;
#341=PLANE('',#340) ;
#365=PLANE('',#364) ;
#425=PLANE('',#424) ;
#9=PRODUCT_CATEGORY_RELATIONSHIP(' ',' ',#7,#8) ;
#6=PRODUCT_DEFINITION_FORMATION_WITH_SPECIFIED_SOURCE('',' ',#5,.NOT_KNOWN.) ;
#20=SHAPE_DEFINITION_REPRESENTATION(#11,#19) ;
#42=VERTEX_POINT('',#41) ;
#44=VERTEX_POINT('',#43) ;
#66=VERTEX_POINT('',#65) ;
#68=VERTEX_POINT('',#67) ;
#75=VERTEX_POINT('',#74) ;
#82=VERTEX_POINT('',#81) ;
#123=VERTEX_POINT('',#122) ;
#130=VERTEX_POINT('',#129) ;
#166=VERTEX_POINT('',#165) ;
#168=VERTEX_POINT('',#167) ;
#175=VERTEX_POINT('',#174) ;
#182=VERTEX_POINT('',#181) ;
#189=VERTEX_POINT('',#188) ;
#196=VERTEX_POINT('',#195) ;
#220=VERTEX_POINT('',#219) ;
#222=VERTEX_POINT('',#221) ;
#244=VERTEX_POINT('',#243) ;
#251=VERTEX_POINT('',#250) ;
#275=VERTEX_POINT('',#274) ;
#299=VERTEX_POINT('',#298) ;
#323=VERTEX_POINT('',#322) ;
#347=VERTEX_POINT('',#346) ;
#388=VERTEX_POINT('',#387) ;
#390=VERTEX_POINT('',#389) ;
#12=(LENGTH_UNIT()NAMED_UNIT(*)SI_UNIT(.MILLI.,.METRE.)) ;
#13=(NAMED_UNIT(*)PLANE_ANGLE_UNIT()SI_UNIT($,.RADIAN.)) ;
#14=(NAMED_UNIT(*)SI_UNIT($,.STERADIAN.)SOLID_ANGLE_UNIT()) ;
#16=(GEOMETRIC_REPRESENTATION_CONTEXT(3)GLOBAL_UNCERTAINTY_ASSIGNED_CONTEXT((#15))GLOBAL_UNIT_ASSIGNED_CONTEXT((#12,#13,#14))REPRESENTATION_CONTEXT(' ',' ')) ;
ENDSEC;
END-ISO-10303-21;
