ISO-10303-21;
HEADER;
FILE_DESCRIPTION(('CATIA V5 STEP Exchange','CAx-IF Rec.Pracs.--- Model Styling and Organization---1.4--- 2014-01-23'),'2;1');

FILE_NAME ('D1445792_1', '2021-12-08T07:17:18+00:00', ('none'), ('Weidmueller'), 'CATIA Version 5-6 Release 2016 SP3 HF44', 'CATIA V5 STEP AP214', 'none');

FILE_SCHEMA(('AUTOMOTIVE_DESIGN { 1 0 10303 214 1 1 1 1 }'));

ENDSEC;
DATA;
#5=PRODUCT('0249000000','','',(#2)) ;
#2=PRODUCT_CONTEXT(' ',#1,'mechanical') ;
#1=APPLICATION_CONTEXT('automotive design') ;
#10=PRODUCT_DEFINITION('',' ',#6,#3) ;
#3=PRODUCT_DEFINITION_CONTEXT('part definition',#1,' ') ;
#11=PRODUCT_DEFINITION_SHAPE(' ',' ',#10) ;
#381=MECHANICAL_DESIGN_GEOMETRIC_PRESENTATION_REPRESENTATION(' ',(#29),#16) ;
#382=MECHANICAL_DESIGN_GEOMETRIC_PRESENTATION_REPRESENTATION(' ',(#378),#16) ;
#19=SHAPE_REPRESENTATION(' ',(#18),#16) ;
#18=AXIS2_PLACEMENT_3D(' ',#17,$,$) ;
#35=AXIS2_PLACEMENT_3D('Plane Axis2P3D',#32,#33,#34) ;
#75=AXIS2_PLACEMENT_3D('Plane Axis2P3D',#72,#73,#74) ;
#88=AXIS2_PLACEMENT_3D('Circle Axis2P3D',#86,#87,$) ;
#95=AXIS2_PLACEMENT_3D('Circle Axis2P3D',#93,#94,$) ;
#100=AXIS2_PLACEMENT_3D('Circle Axis2P3D',#98,#99,$) ;
#114=AXIS2_PLACEMENT_3D('Cylinder Axis2P3D',#111,#112,#113) ;
#125=AXIS2_PLACEMENT_3D('Circle Axis2P3D',#123,#124,$) ;
#138=AXIS2_PLACEMENT_3D('Plane Axis2P3D',#135,#136,#137) ;
#142=AXIS2_PLACEMENT_3D('Circle Axis2P3D',#140,#141,$) ;
#188=AXIS2_PLACEMENT_3D('Cylinder Axis2P3D',#185,#186,#187) ;
#213=AXIS2_PLACEMENT_3D('Circle Axis2P3D',#211,#212,$) ;
#220=AXIS2_PLACEMENT_3D('Circle Axis2P3D',#218,#219,$) ;
#225=AXIS2_PLACEMENT_3D('Circle Axis2P3D',#223,#224,$) ;
#239=AXIS2_PLACEMENT_3D('Cylinder Axis2P3D',#236,#237,#238) ;
#255=AXIS2_PLACEMENT_3D('Circle Axis2P3D',#253,#254,$) ;
#262=AXIS2_PLACEMENT_3D('Circle Axis2P3D',#260,#261,$) ;
#308=AXIS2_PLACEMENT_3D('Cylinder Axis2P3D',#305,#306,#307) ;
#325=AXIS2_PLACEMENT_3D('Plane Axis2P3D',#322,#323,#324) ;
#342=AXIS2_PLACEMENT_3D('Cylinder Axis2P3D',#339,#340,#341) ;
#359=AXIS2_PLACEMENT_3D('Cylinder Axis2P3D',#356,#357,#358) ;
#373=AXIS2_PLACEMENT_3D('Achsensystem.1',#370,#371,#372) ;
#17=CARTESIAN_POINT(' ',(0.,0.,0.)) ;
#32=CARTESIAN_POINT('Axis2P3D Location',(2.55,4.0969669092,12.)) ;
#37=CARTESIAN_POINT('Line Origine',(2.57424242427,4.49623161483,12.)) ;
#41=CARTESIAN_POINT('Vertex',(2.59848484853,4.89549632046,12.)) ;
#43=CARTESIAN_POINT('Vertex',(2.55,4.0969669092,12.)) ;
#46=CARTESIAN_POINT('Line Origine',(2.59848484853,4.89549632046,6.)) ;
#50=CARTESIAN_POINT('Vertex',(2.59848484853,4.89549632046,4.88958243766E-017)) ;
#53=CARTESIAN_POINT('Line Origine',(2.57424242427,4.49623161483,2.44479121883E-017)) ;
#57=CARTESIAN_POINT('Vertex',(2.55,4.0969669092,0.)) ;
#60=CARTESIAN_POINT('Line Origine',(2.55,4.0969669092,6.)) ;
#72=CARTESIAN_POINT('Axis2P3D Location',(2.35,4.0969669092,12.)) ;
#77=CARTESIAN_POINT('Line Origine',(2.44999999973,0.400000000628,12.)) ;
#81=CARTESIAN_POINT('Vertex',(2.45,0.8,12.)) ;
#83=CARTESIAN_POINT('Vertex',(2.45,-4.4408920985E-016,12.)) ;
#86=CARTESIAN_POINT('Axis2P3D Location',(2.45000000083,2.4500000003,12.)) ;
#90=CARTESIAN_POINT('Vertex',(4.8988738211,2.37572343343,12.)) ;
#93=CARTESIAN_POINT('Axis2P3D Location',(2.45000000083,2.4500000003,12.)) ;
#98=CARTESIAN_POINT('Axis2P3D Location',(2.45000000017,2.45000000067,12.)) ;
#111=CARTESIAN_POINT('Axis2P3D Location',(2.45,2.45,6.)) ;
#116=CARTESIAN_POINT('Line Origine',(4.8988738211,2.37572343343,6.)) ;
#120=CARTESIAN_POINT('Vertex',(4.89887382093,2.37572343344,3.96868383297E-016)) ;
#123=CARTESIAN_POINT('Axis2P3D Location',(2.45,2.45,-1.7763568394E-015)) ;
#135=CARTESIAN_POINT('Axis2P3D Location',(2.55,4.0969669092,5.02264148954E-016)) ;
#140=CARTESIAN_POINT('Axis2P3D Location',(2.45000000021,2.45000000029,4.01416511289E-016)) ;
#144=CARTESIAN_POINT('Vertex',(2.45000000053,6.63487782727E-010,2.51397278416E-016)) ;
#147=CARTESIAN_POINT('Line Origine',(2.45000000027,0.400000000628,2.75890214397E-016)) ;
#151=CARTESIAN_POINT('Vertex',(2.45,0.8,-1.87739020033E-015)) ;
#155=CARTESIAN_POINT('Control Point',(2.55,4.0969669092,5.02264148954E-016)) ;
#156=CARTESIAN_POINT('Control Point',(2.73843497832,4.0855255756,5.01563569326E-016)) ;
#157=CARTESIAN_POINT('Control Point',(2.92523307775,4.04713493397,4.99212820506E-016)) ;
#158=CARTESIAN_POINT('Control Point',(3.10527087803,3.98209249948,4.95230120046E-016)) ;
#159=CARTESIAN_POINT('Control Point',(3.44167877961,3.80236783339,4.84225158193E-016)) ;
#160=CARTESIAN_POINT('Control Point',(3.71422241116,3.53555431557,4.67887542165E-016)) ;
#161=CARTESIAN_POINT('Control Point',(3.83038157115,3.38339920068,4.58570728443E-016)) ;
#162=CARTESIAN_POINT('Control Point',(4.01592661231,3.05016614619,4.38166088766E-016)) ;
#163=CARTESIAN_POINT('Control Point',(4.10062781746,2.67828553455,4.1539496873E-016)) ;
#164=CARTESIAN_POINT('Control Point',(4.1159181561,2.48747061184,4.03710924514E-016)) ;
#165=CARTESIAN_POINT('Control Point',(4.09151464938,2.10684520386,3.80404340136E-016)) ;
#166=CARTESIAN_POINT('Control Point',(3.96140084475,1.7483206122,3.58451040457E-016)) ;
#167=CARTESIAN_POINT('Control Point',(3.87095325085,1.57960973842,3.48120478879E-016)) ;
#168=CARTESIAN_POINT('Control Point',(3.64437234296,1.27279982046,3.2933378968E-016)) ;
#169=CARTESIAN_POINT('Control Point',(3.34087747632,1.04180122292,3.15189205026E-016)) ;
#170=CARTESIAN_POINT('Control Point',(3.17349443441,0.948919337384,3.09501829835E-016)) ;
#171=CARTESIAN_POINT('Control Point',(2.9265165793,0.855218197427,3.03764289778E-016)) ;
#172=CARTESIAN_POINT('Control Point',(2.66820663474,0.812064603221,3.01121894228E-016)) ;
#173=CARTESIAN_POINT('Control Point',(2.59542341284,0.804005293022,3.00628403806E-016)) ;
#174=CARTESIAN_POINT('Control Point',(2.52271166352,0.800000000592,3.00383150378E-016)) ;
#175=CARTESIAN_POINT('Control Point',(2.45000000002,0.800000000592,3.00383150378E-016)) ;
#185=CARTESIAN_POINT('Axis2P3D Location',(2.45,2.45,6.)) ;
#190=CARTESIAN_POINT('Line Origine',(2.45,0.8,6.)) ;
#202=CARTESIAN_POINT('Line Origine',(2.3257575755,4.49623161441,12.)) ;
#206=CARTESIAN_POINT('Vertex',(2.35,4.0969669092,12.)) ;
#208=CARTESIAN_POINT('Vertex',(2.30151515151,4.89549631972,12.)) ;
#211=CARTESIAN_POINT('Axis2P3D Location',(2.44999999979,2.45000000029,12.)) ;
#215=CARTESIAN_POINT('Vertex',(0.00112617890211,2.37572343343,12.)) ;
#218=CARTESIAN_POINT('Axis2P3D Location',(2.44999999979,2.45000000029,12.)) ;
#223=CARTESIAN_POINT('Axis2P3D Location',(2.45000000063,2.45000000032,12.)) ;
#236=CARTESIAN_POINT('Axis2P3D Location',(2.45,2.45,6.)) ;
#241=CARTESIAN_POINT('Line Origine',(2.45,0.,6.)) ;
#253=CARTESIAN_POINT('Axis2P3D Location',(2.44999999917,2.4500000003,4.0141651129E-016)) ;
#257=CARTESIAN_POINT('Vertex',(0.00112617843969,2.37572343342,3.96868383295E-016)) ;
#260=CARTESIAN_POINT('Axis2P3D Location',(2.44999999917,2.4500000003,4.0141651129E-016)) ;
#264=CARTESIAN_POINT('Vertex',(2.30151515139,4.8954963197,5.51159973284E-016)) ;
#267=CARTESIAN_POINT('Line Origine',(2.32575757595,4.49623161485,5.26712061143E-016)) ;
#271=CARTESIAN_POINT('Vertex',(2.35,4.0969669092,1.00847637683E-016)) ;
#275=CARTESIAN_POINT('Control Point',(2.45000000002,0.800000000592,3.00383150378E-016)) ;
#276=CARTESIAN_POINT('Control Point',(2.26121799428,0.800000000592,3.00383150378E-016)) ;
#277=CARTESIAN_POINT('Control Point',(2.07243656706,0.826998974592,3.02036360732E-016)) ;
#278=CARTESIAN_POINT('Control Point',(1.88878775982,0.881010461486,3.0534361046E-016)) ;
#279=CARTESIAN_POINT('Control Point',(1.54210584804,1.04001639462,3.15079915812E-016)) ;
#280=CARTESIAN_POINT('Control Point',(1.25389269756,1.28982165313,3.30376076325E-016)) ;
#281=CARTESIAN_POINT('Control Point',(1.12872554901,1.4346571146,3.39244690539E-016)) ;
#282=CARTESIAN_POINT('Control Point',(0.923325638445,1.75603245642,3.58923254723E-016)) ;
#283=CARTESIAN_POINT('Control Point',(0.816241914608,2.12209606048,3.81338185773E-016)) ;
#284=CARTESIAN_POINT('Control Point',(0.789415142,2.31163352914,3.92944008489E-016)) ;
#285=CARTESIAN_POINT('Control Point',(0.790705582434,2.69303825695,4.16298312443E-016)) ;
#286=CARTESIAN_POINT('Control Point',(0.898851443079,3.05878947977,4.38694115659E-016)) ;
#287=CARTESIAN_POINT('Control Point',(0.978907874794,3.23267190428,4.49341343389E-016)) ;
#288=CARTESIAN_POINT('Control Point',(1.18647773143,3.55265000595,4.6893435129E-016)) ;
#289=CARTESIAN_POINT('Control Point',(1.47541478478,3.80161759967,4.84179219626E-016)) ;
#290=CARTESIAN_POINT('Control Point',(1.63686093694,3.9044731738,4.90477307108E-016)) ;
#291=CARTESIAN_POINT('Control Point',(1.87770593021,4.01297042296,4.97120847553E-016)) ;
#292=CARTESIAN_POINT('Control Point',(2.13292566935,4.07169983851,5.00716987092E-016)) ;
#293=CARTESIAN_POINT('Control Point',(2.20508665529,4.08415544006,5.0147967272E-016)) ;
#294=CARTESIAN_POINT('Control Point',(2.27742199824,4.0925601425,5.01994312317E-016)) ;
#295=CARTESIAN_POINT('Control Point',(2.35000000051,4.09696690999,5.02264149002E-016)) ;
#305=CARTESIAN_POINT('Axis2P3D Location',(2.45,2.45,6.)) ;
#310=CARTESIAN_POINT('Line Origine',(2.35,4.0969669092,6.)) ;
#322=CARTESIAN_POINT('Axis2P3D Location',(2.35,4.0969669092,5.02264148954E-016)) ;
#327=CARTESIAN_POINT('Line Origine',(2.30151515147,4.89549632046,6.)) ;
#339=CARTESIAN_POINT('Axis2P3D Location',(2.45,2.45,6.)) ;
#344=CARTESIAN_POINT('Line Origine',(0.00112617890211,2.37572343343,6.)) ;
#356=CARTESIAN_POINT('Axis2P3D Location',(2.45,2.45,6.)) ;
#370=CARTESIAN_POINT('Axis2P3D Location',(0.,0.,0.)) ;
#33=DIRECTION('Axis2P3D Direction',(0.998161763152,-0.0606060606061,-3.71105090651E-018)) ;
#34=DIRECTION('Axis2P3D XDirection',(0.,6.12323399574E-017,-1.)) ;
#38=DIRECTION('Vector Direction',(-0.0606060606061,-0.998161763152,0.)) ;
#47=DIRECTION('Vector Direction',(0.,-7.40148683083E-017,1.)) ;
#54=DIRECTION('Vector Direction',(-0.0606060606061,-0.998161763152,-6.11197804138E-017)) ;
#61=DIRECTION('Vector Direction',(0.,-7.40148683083E-017,1.)) ;
#73=DIRECTION('Axis2P3D Direction',(1.46948454757E-030,6.12323399574E-017,-1.)) ;
#74=DIRECTION('Axis2P3D XDirection',(0.0303169659469,-0.999540335142,-6.12041936025E-017)) ;
#78=DIRECTION('Vector Direction',(-6.41923181335E-010,-1.,0.)) ;
#87=DIRECTION('Axis2P3D Direction',(1.46948454757E-030,6.12323399574E-017,-1.)) ;
#94=DIRECTION('Axis2P3D Direction',(1.46948454757E-030,6.12323399574E-017,-1.)) ;
#99=DIRECTION('Axis2P3D Direction',(1.46948454757E-030,6.12323399574E-017,-1.)) ;
#112=DIRECTION('Axis2P3D Direction',(-2.49870150985E-030,6.12323399574E-017,-1.)) ;
#113=DIRECTION('Axis2P3D XDirection',(-0.999540335142,0.0303169659469,1.85637876534E-018)) ;
#117=DIRECTION('Vector Direction',(0.,6.12323525218E-017,-1.)) ;
#124=DIRECTION('Axis2P3D Direction',(-2.49870150985E-030,6.12323399574E-017,-1.)) ;
#136=DIRECTION('Axis2P3D Direction',(1.46948454757E-030,-6.12323399574E-017,1.)) ;
#137=DIRECTION('Axis2P3D XDirection',(-0.0303169659469,-0.999540335142,-6.12041936025E-017)) ;
#141=DIRECTION('Axis2P3D Direction',(1.46948454757E-030,-6.12323399574E-017,1.)) ;
#148=DIRECTION('Vector Direction',(6.41923181335E-010,-1.,-6.12323399574E-017)) ;
#186=DIRECTION('Axis2P3D Direction',(-6.12368685117E-030,6.12323399573E-017,-1.)) ;
#187=DIRECTION('Axis2P3D XDirection',(0.0606060606061,0.998161763152,6.11197804137E-017)) ;
#191=DIRECTION('Vector Direction',(0.,6.12323525218E-017,-1.)) ;
#203=DIRECTION('Vector Direction',(0.0606060612468,-0.998161763113,0.)) ;
#212=DIRECTION('Axis2P3D Direction',(1.46948454757E-030,6.12323399574E-017,-1.)) ;
#219=DIRECTION('Axis2P3D Direction',(1.46948454757E-030,6.12323399574E-017,-1.)) ;
#224=DIRECTION('Axis2P3D Direction',(1.46948454757E-030,6.12323399574E-017,-1.)) ;
#237=DIRECTION('Axis2P3D Direction',(-2.49870150985E-030,6.12323399574E-017,-1.)) ;
#238=DIRECTION('Axis2P3D XDirection',(0.999540335142,-0.0303169659469,-1.85637876534E-018)) ;
#242=DIRECTION('Vector Direction',(0.,6.12323525218E-017,-1.)) ;
#254=DIRECTION('Axis2P3D Direction',(1.46948454757E-030,-6.12323399574E-017,1.)) ;
#261=DIRECTION('Axis2P3D Direction',(1.46948454757E-030,-6.12323399574E-017,1.)) ;
#268=DIRECTION('Vector Direction',(0.0606060614541,-0.9981617631,-6.11197804106E-017)) ;
#306=DIRECTION('Axis2P3D Direction',(0.,6.12323399574E-017,-1.)) ;
#307=DIRECTION('Axis2P3D XDirection',(1.83697019872E-016,-1.,-6.12323399574E-017)) ;
#311=DIRECTION('Vector Direction',(0.,6.12323525218E-017,-1.)) ;
#323=DIRECTION('Axis2P3D Direction',(-0.998161763152,-0.0606060606061,-3.71105090651E-018)) ;
#324=DIRECTION('Axis2P3D XDirection',(0.,-6.12323399574E-017,1.)) ;
#328=DIRECTION('Vector Direction',(0.,7.40148683083E-017,-1.)) ;
#340=DIRECTION('Axis2P3D Direction',(2.49870150985E-030,6.12323399574E-017,-1.)) ;
#341=DIRECTION('Axis2P3D XDirection',(-0.999540335142,-0.0303169659469,-1.85637876534E-018)) ;
#345=DIRECTION('Vector Direction',(0.,6.12323525218E-017,-1.)) ;
#357=DIRECTION('Axis2P3D Direction',(2.49870150985E-030,6.12323399574E-017,-1.)) ;
#358=DIRECTION('Axis2P3D XDirection',(0.999540335142,0.0303169659469,1.85637876534E-018)) ;
#371=DIRECTION('Axis2P3D Direction',(0.,0.,1.)) ;
#372=DIRECTION('Axis2P3D XDirection',(1.,0.,0.)) ;
#30=PRESENTATION_LAYER_ASSIGNMENT('1',' ',(#21)) ;
#8=PRODUCT_RELATED_PRODUCT_CATEGORY('part',$,(#5)) ;
#7=PRODUCT_CATEGORY('part','specification') ;
#29=STYLED_ITEM(' ',(#28),#21) ;
#378=STYLED_ITEM(' ',(#377),#373) ;
#28=PRESENTATION_STYLE_ASSIGNMENT((#27)) ;
#377=PRESENTATION_STYLE_ASSIGNMENT((#376)) ;
#376=CURVE_STYLE(' ',#374,POSITIVE_LENGTH_MEASURE(0.129999995232),#375) ;
#27=SURFACE_STYLE_USAGE(.BOTH.,#26) ;
#26=SURFACE_SIDE_STYLE(' ',(#25)) ;
#25=SURFACE_STYLE_FILL_AREA(#24) ;
#24=FILL_AREA_STYLE(' ',(#23)) ;
#23=FILL_AREA_STYLE_COLOUR(' ',#22) ;
#39=VECTOR('Line Direction',#38,1.) ;
#48=VECTOR('Line Direction',#47,1.) ;
#55=VECTOR('Line Direction',#54,1.) ;
#62=VECTOR('Line Direction',#61,1.) ;
#79=VECTOR('Line Direction',#78,1.) ;
#118=VECTOR('Line Direction',#117,1.) ;
#149=VECTOR('Line Direction',#148,1.) ;
#192=VECTOR('Line Direction',#191,1.) ;
#204=VECTOR('Line Direction',#203,1.) ;
#243=VECTOR('Line Direction',#242,1.) ;
#269=VECTOR('Line Direction',#268,1.) ;
#312=VECTOR('Line Direction',#311,1.) ;
#329=VECTOR('Line Direction',#328,1.) ;
#346=VECTOR('Line Direction',#345,1.) ;
#15=UNCERTAINTY_MEASURE_WITH_UNIT(LENGTH_MEASURE(0.005),#12,'distance_accuracy_value','CONFUSED CURVE UNCERTAINTY') ;
#369=SHAPE_REPRESENTATION_RELATIONSHIP(' ',' ',#19,#368) ;
#66=ORIENTED_EDGE('',*,*,#45,.F.) ;
#67=ORIENTED_EDGE('',*,*,#52,.F.) ;
#68=ORIENTED_EDGE('',*,*,#59,.F.) ;
#69=ORIENTED_EDGE('',*,*,#64,.T.) ;
#104=ORIENTED_EDGE('',*,*,#85,.T.) ;
#105=ORIENTED_EDGE('',*,*,#92,.F.) ;
#106=ORIENTED_EDGE('',*,*,#97,.F.) ;
#107=ORIENTED_EDGE('',*,*,#45,.T.) ;
#108=ORIENTED_EDGE('',*,*,#102,.T.) ;
#129=ORIENTED_EDGE('',*,*,#122,.T.) ;
#130=ORIENTED_EDGE('',*,*,#127,.F.) ;
#131=ORIENTED_EDGE('',*,*,#52,.T.) ;
#132=ORIENTED_EDGE('',*,*,#97,.T.) ;
#178=ORIENTED_EDGE('',*,*,#59,.T.) ;
#179=ORIENTED_EDGE('',*,*,#127,.T.) ;
#180=ORIENTED_EDGE('',*,*,#146,.T.) ;
#181=ORIENTED_EDGE('',*,*,#153,.F.) ;
#182=ORIENTED_EDGE('',*,*,#176,.F.) ;
#196=ORIENTED_EDGE('',*,*,#64,.F.) ;
#197=ORIENTED_EDGE('',*,*,#176,.T.) ;
#198=ORIENTED_EDGE('',*,*,#194,.T.) ;
#199=ORIENTED_EDGE('',*,*,#102,.F.) ;
#229=ORIENTED_EDGE('',*,*,#210,.T.) ;
#230=ORIENTED_EDGE('',*,*,#217,.F.) ;
#231=ORIENTED_EDGE('',*,*,#222,.F.) ;
#232=ORIENTED_EDGE('',*,*,#85,.F.) ;
#233=ORIENTED_EDGE('',*,*,#227,.T.) ;
#247=ORIENTED_EDGE('',*,*,#122,.F.) ;
#248=ORIENTED_EDGE('',*,*,#92,.T.) ;
#249=ORIENTED_EDGE('',*,*,#245,.F.) ;
#250=ORIENTED_EDGE('',*,*,#146,.F.) ;
#298=ORIENTED_EDGE('',*,*,#153,.T.) ;
#299=ORIENTED_EDGE('',*,*,#259,.T.) ;
#300=ORIENTED_EDGE('',*,*,#266,.T.) ;
#301=ORIENTED_EDGE('',*,*,#273,.F.) ;
#302=ORIENTED_EDGE('',*,*,#296,.F.) ;
#316=ORIENTED_EDGE('',*,*,#194,.F.) ;
#317=ORIENTED_EDGE('',*,*,#296,.T.) ;
#318=ORIENTED_EDGE('',*,*,#314,.T.) ;
#319=ORIENTED_EDGE('',*,*,#227,.F.) ;
#333=ORIENTED_EDGE('',*,*,#273,.T.) ;
#334=ORIENTED_EDGE('',*,*,#331,.T.) ;
#335=ORIENTED_EDGE('',*,*,#210,.F.) ;
#336=ORIENTED_EDGE('',*,*,#314,.F.) ;
#350=ORIENTED_EDGE('',*,*,#348,.F.) ;
#351=ORIENTED_EDGE('',*,*,#217,.T.) ;
#352=ORIENTED_EDGE('',*,*,#331,.F.) ;
#353=ORIENTED_EDGE('',*,*,#266,.F.) ;
#362=ORIENTED_EDGE('',*,*,#348,.T.) ;
#363=ORIENTED_EDGE('',*,*,#259,.F.) ;
#364=ORIENTED_EDGE('',*,*,#245,.T.) ;
#365=ORIENTED_EDGE('',*,*,#222,.T.) ;
#31=CLOSED_SHELL('Closed Shell',(#71,#110,#134,#184,#201,#235,#252,#304,#321,#338,#355,#367)) ;
#368=ADVANCED_BREP_SHAPE_REPRESENTATION('NONE',(#21),#16) ;
#71=ADVANCED_FACE('V1',(#70),#36,.F.) ;
#110=ADVANCED_FACE('V1',(#109),#76,.F.) ;
#134=ADVANCED_FACE('V1',(#133),#115,.T.) ;
#184=ADVANCED_FACE('V1',(#183),#139,.F.) ;
#201=ADVANCED_FACE('V1',(#200),#189,.F.) ;
#235=ADVANCED_FACE('V1',(#234),#76,.F.) ;
#252=ADVANCED_FACE('V1',(#251),#240,.T.) ;
#304=ADVANCED_FACE('V1',(#303),#139,.F.) ;
#321=ADVANCED_FACE('V1',(#320),#309,.F.) ;
#338=ADVANCED_FACE('V1',(#337),#326,.F.) ;
#355=ADVANCED_FACE('V1',(#354),#343,.T.) ;
#367=ADVANCED_FACE('V1',(#366),#360,.T.) ;
#4=APPLICATION_PROTOCOL_DEFINITION('international standard','automotive_design',2001,#1) ;
#154=B_SPLINE_CURVE_WITH_KNOTS('',5,(#155,#156,#157,#158,#159,#160,#161,#162,#163,#164,#165,#166,#167,#168,#169,#170,#171,#172,#173,#174,#175),.UNSPECIFIED.,.F.,.U.,(6,3,3,3,3,3,6),(0.,1.33489035446,2.66978070117,4.00467104725,5.3395614072,6.67445176411,7.18860086742),.UNSPECIFIED.) ;
#274=B_SPLINE_CURVE_WITH_KNOTS('',5,(#275,#276,#277,#278,#279,#280,#281,#282,#283,#284,#285,#286,#287,#288,#289,#290,#291,#292,#293,#294,#295),.UNSPECIFIED.,.F.,.U.,(6,3,3,3,3,3,6),(0.,1.33489036424,2.66978072719,4.0046710811,5.33956142643,6.67445177424,7.18860087781),.UNSPECIFIED.) ;
#21=MANIFOLD_SOLID_BREP('V1',#31) ;
#89=CIRCLE('generated circle',#88,2.44999999964) ;
#96=CIRCLE('generated circle',#95,2.44999999964) ;
#101=CIRCLE('generated circle',#100,1.65000000008) ;
#126=CIRCLE('generated circle',#125,2.45) ;
#143=CIRCLE('generated circle',#142,2.44999999963) ;
#214=CIRCLE('generated circle',#213,2.44999999963) ;
#221=CIRCLE('generated circle',#220,2.44999999963) ;
#226=CIRCLE('generated circle',#225,1.64999999972) ;
#256=CIRCLE('generated circle',#255,2.44999999964) ;
#263=CIRCLE('generated circle',#262,2.44999999964) ;
#22=COLOUR_RGB('Colour',0.823529411765,0.823529411765,1.) ;
#379=CONSTRUCTIVE_GEOMETRY_REPRESENTATION('supplemental geometry',(#373),#16) ;
#380=CONSTRUCTIVE_GEOMETRY_REPRESENTATION_RELATIONSHIP('supplemental geometry','',#19,#379) ;
#115=CYLINDRICAL_SURFACE('generated cylinder',#114,2.45) ;
#189=CYLINDRICAL_SURFACE('generated cylinder',#188,1.65) ;
#240=CYLINDRICAL_SURFACE('generated cylinder',#239,2.45) ;
#309=CYLINDRICAL_SURFACE('generated cylinder',#308,1.65) ;
#343=CYLINDRICAL_SURFACE('generated cylinder',#342,2.45) ;
#360=CYLINDRICAL_SURFACE('generated cylinder',#359,2.45) ;
#375=DRAUGHTING_PRE_DEFINED_COLOUR('white') ;
#374=DRAUGHTING_PRE_DEFINED_CURVE_FONT('continuous') ;
#45=EDGE_CURVE('',#42,#44,#40,.T.) ;
#52=EDGE_CURVE('',#51,#42,#49,.T.) ;
#59=EDGE_CURVE('',#58,#51,#56,.F.) ;
#64=EDGE_CURVE('',#58,#44,#63,.T.) ;
#85=EDGE_CURVE('',#82,#84,#80,.T.) ;
#92=EDGE_CURVE('',#91,#84,#89,.T.) ;
#97=EDGE_CURVE('',#42,#91,#96,.T.) ;
#102=EDGE_CURVE('',#44,#82,#101,.T.) ;
#122=EDGE_CURVE('',#91,#121,#119,.T.) ;
#127=EDGE_CURVE('',#51,#121,#126,.T.) ;
#146=EDGE_CURVE('',#121,#145,#143,.F.) ;
#153=EDGE_CURVE('',#152,#145,#150,.T.) ;
#176=EDGE_CURVE('',#58,#152,#154,.T.) ;
#194=EDGE_CURVE('',#152,#82,#193,.F.) ;
#210=EDGE_CURVE('',#207,#209,#205,.F.) ;
#217=EDGE_CURVE('',#216,#209,#214,.T.) ;
#222=EDGE_CURVE('',#84,#216,#221,.T.) ;
#227=EDGE_CURVE('',#82,#207,#226,.T.) ;
#245=EDGE_CURVE('',#145,#84,#244,.F.) ;
#259=EDGE_CURVE('',#145,#258,#256,.F.) ;
#266=EDGE_CURVE('',#258,#265,#263,.F.) ;
#273=EDGE_CURVE('',#272,#265,#270,.F.) ;
#296=EDGE_CURVE('',#152,#272,#274,.T.) ;
#314=EDGE_CURVE('',#272,#207,#313,.F.) ;
#331=EDGE_CURVE('',#265,#209,#330,.F.) ;
#348=EDGE_CURVE('',#216,#258,#347,.T.) ;
#65=EDGE_LOOP('',(#66,#67,#68,#69)) ;
#103=EDGE_LOOP('',(#104,#105,#106,#107,#108)) ;
#128=EDGE_LOOP('',(#129,#130,#131,#132)) ;
#177=EDGE_LOOP('',(#178,#179,#180,#181,#182)) ;
#195=EDGE_LOOP('',(#196,#197,#198,#199)) ;
#228=EDGE_LOOP('',(#229,#230,#231,#232,#233)) ;
#246=EDGE_LOOP('',(#247,#248,#249,#250)) ;
#297=EDGE_LOOP('',(#298,#299,#300,#301,#302)) ;
#315=EDGE_LOOP('',(#316,#317,#318,#319)) ;
#332=EDGE_LOOP('',(#333,#334,#335,#336)) ;
#349=EDGE_LOOP('',(#350,#351,#352,#353)) ;
#361=EDGE_LOOP('',(#362,#363,#364,#365)) ;
#70=FACE_OUTER_BOUND('',#65,.T.) ;
#109=FACE_OUTER_BOUND('',#103,.T.) ;
#133=FACE_OUTER_BOUND('',#128,.T.) ;
#183=FACE_OUTER_BOUND('',#177,.T.) ;
#200=FACE_OUTER_BOUND('',#195,.T.) ;
#234=FACE_OUTER_BOUND('',#228,.T.) ;
#251=FACE_OUTER_BOUND('',#246,.T.) ;
#303=FACE_OUTER_BOUND('',#297,.T.) ;
#320=FACE_OUTER_BOUND('',#315,.T.) ;
#337=FACE_OUTER_BOUND('',#332,.T.) ;
#354=FACE_OUTER_BOUND('',#349,.T.) ;
#366=FACE_OUTER_BOUND('',#361,.T.) ;
#40=LINE('Line',#37,#39) ;
#49=LINE('Line',#46,#48) ;
#56=LINE('Line',#53,#55) ;
#63=LINE('Line',#60,#62) ;
#80=LINE('Line',#77,#79) ;
#119=LINE('Line',#116,#118) ;
#150=LINE('Line',#147,#149) ;
#193=LINE('Line',#190,#192) ;
#205=LINE('Line',#202,#204) ;
#244=LINE('Line',#241,#243) ;
#270=LINE('Line',#267,#269) ;
#313=LINE('Line',#310,#312) ;
#330=LINE('Line',#327,#329) ;
#347=LINE('Line',#344,#346) ;
#36=PLANE('',#35) ;
#76=PLANE('',#75) ;
#139=PLANE('',#138) ;
#326=PLANE('',#325) ;
#9=PRODUCT_CATEGORY_RELATIONSHIP(' ',' ',#7,#8) ;
#6=PRODUCT_DEFINITION_FORMATION_WITH_SPECIFIED_SOURCE('',' ',#5,.NOT_KNOWN.) ;
#20=SHAPE_DEFINITION_REPRESENTATION(#11,#19) ;
#42=VERTEX_POINT('',#41) ;
#44=VERTEX_POINT('',#43) ;
#51=VERTEX_POINT('',#50) ;
#58=VERTEX_POINT('',#57) ;
#82=VERTEX_POINT('',#81) ;
#84=VERTEX_POINT('',#83) ;
#91=VERTEX_POINT('',#90) ;
#121=VERTEX_POINT('',#120) ;
#145=VERTEX_POINT('',#144) ;
#152=VERTEX_POINT('',#151) ;
#207=VERTEX_POINT('',#206) ;
#209=VERTEX_POINT('',#208) ;
#216=VERTEX_POINT('',#215) ;
#258=VERTEX_POINT('',#257) ;
#265=VERTEX_POINT('',#264) ;
#272=VERTEX_POINT('',#271) ;
#12=(LENGTH_UNIT()NAMED_UNIT(*)SI_UNIT(.MILLI.,.METRE.)) ;
#13=(NAMED_UNIT(*)PLANE_ANGLE_UNIT()SI_UNIT($,.RADIAN.)) ;
#14=(NAMED_UNIT(*)SI_UNIT($,.STERADIAN.)SOLID_ANGLE_UNIT()) ;
#16=(GEOMETRIC_REPRESENTATION_CONTEXT(3)GLOBAL_UNCERTAINTY_ASSIGNED_CONTEXT((#15))GLOBAL_UNIT_ASSIGNED_CONTEXT((#12,#13,#14))REPRESENTATION_CONTEXT(' ',' ')) ;
ENDSEC;
END-ISO-10303-21;
