ISO-10303-21;
HEADER;
FILE_DESCRIPTION(('CATIA V5R24 STEP','CAx-IF Rec.Pracs.--- Model Styling and Organization---1.2---2011-12-15'),'2;1');

FILE_NAME ('035240-1_1', '2018-07-19T09:53:03+00:00', ('Weidmueller Interface'), ('Weidmueller'), 'CATIA Version 5-6 Release 2014 SP4 HF52', 'CATIA V5 STEP AP214', 'none');

FILE_SCHEMA(('AUTOMOTIVE_DESIGN { 1 0 10303 214 1 1 1 1 }'));

ENDSEC;
DATA;
#5=PRODUCT('0300800000','','',(#2)) ;
#2=PRODUCT_CONTEXT(' ',#1,'mechanical') ;
#1=APPLICATION_CONTEXT('automotive design') ;
#10=PRODUCT_DEFINITION('',' ',#6,#3) ;
#3=PRODUCT_DEFINITION_CONTEXT('part definition',#1,' ') ;
#11=PRODUCT_DEFINITION_SHAPE(' ',' ',#10) ;
#396=MECHANICAL_DESIGN_GEOMETRIC_PRESENTATION_REPRESENTATION(' ',(#46),#16) ;
#19=SHAPE_REPRESENTATION(' ',(#18),#16) ;
#18=AXIS2_PLACEMENT_3D(' ',#17,$,$) ;
#24=AXIS2_PLACEMENT_3D('Plane Axis2P3D',#21,#22,#23) ;
#31=AXIS2_PLACEMENT_3D('Plane Axis2P3D',#28,#29,#30) ;
#36=AXIS2_PLACEMENT_3D('Plane Axis2P3D',#33,#34,#35) ;
#52=AXIS2_PLACEMENT_3D('Cylinder Axis2P3D',#49,#50,#51) ;
#56=AXIS2_PLACEMENT_3D('Circle Axis2P3D',#54,#55,$) ;
#72=AXIS2_PLACEMENT_3D('Circle Axis2P3D',#70,#71,$) ;
#92=AXIS2_PLACEMENT_3D('Plane Axis2P3D',#89,#90,#91) ;
#96=AXIS2_PLACEMENT_3D('Circle Axis2P3D',#94,#95,$) ;
#105=AXIS2_PLACEMENT_3D('Circle Axis2P3D',#103,#104,$) ;
#114=AXIS2_PLACEMENT_3D('Circle Axis2P3D',#112,#113,$) ;
#125=AXIS2_PLACEMENT_3D('Cylinder Axis2P3D',#122,#123,#124) ;
#129=AXIS2_PLACEMENT_3D('Circle Axis2P3D',#127,#128,$) ;
#142=AXIS2_PLACEMENT_3D('Plane Axis2P3D',#139,#140,#141) ;
#146=AXIS2_PLACEMENT_3D('Circle Axis2P3D',#144,#145,$) ;
#155=AXIS2_PLACEMENT_3D('Circle Axis2P3D',#153,#154,$) ;
#170=AXIS2_PLACEMENT_3D('Cylinder Axis2P3D',#167,#168,#169) ;
#183=AXIS2_PLACEMENT_3D('Circle Axis2P3D',#181,#182,$) ;
#197=AXIS2_PLACEMENT_3D('Circle Axis2P3D',#195,#196,$) ;
#221=AXIS2_PLACEMENT_3D('Circle Axis2P3D',#219,#220,$) ;
#235=AXIS2_PLACEMENT_3D('Circle Axis2P3D',#233,#234,$) ;
#256=AXIS2_PLACEMENT_3D('Cylinder Axis2P3D',#253,#254,#255) ;
#260=AXIS2_PLACEMENT_3D('Circle Axis2P3D',#258,#259,$) ;
#274=AXIS2_PLACEMENT_3D('Circle Axis2P3D',#272,#273,$) ;
#279=AXIS2_PLACEMENT_3D('Circle Axis2P3D',#277,#278,$) ;
#293=AXIS2_PLACEMENT_3D('Circle Axis2P3D',#291,#292,$) ;
#314=AXIS2_PLACEMENT_3D('Plane Axis2P3D',#311,#312,#313) ;
#330=AXIS2_PLACEMENT_3D('Plane Axis2P3D',#327,#328,#329) ;
#347=AXIS2_PLACEMENT_3D('Plane Axis2P3D',#344,#345,#346) ;
#358=AXIS2_PLACEMENT_3D('Plane Axis2P3D',#355,#356,#357) ;
#386=AXIS2_PLACEMENT_3D('Plane Axis2P3D',#383,#384,#385) ;
#17=CARTESIAN_POINT(' ',(0.,0.,0.)) ;
#21=CARTESIAN_POINT('Axis2P3D Location',(0.,0.,0.)) ;
#28=CARTESIAN_POINT('Axis2P3D Location',(0.,0.,0.)) ;
#33=CARTESIAN_POINT('Axis2P3D Location',(0.,0.,0.)) ;
#49=CARTESIAN_POINT('Axis2P3D Location',(2.5,2.5,6.25)) ;
#54=CARTESIAN_POINT('Axis2P3D Location',(2.5,2.5,12.5)) ;
#58=CARTESIAN_POINT('Vertex',(3.33899469256,4.03576948331,12.5)) ;
#60=CARTESIAN_POINT('Vertex',(1.66100530744,0.964230516692,12.5)) ;
#63=CARTESIAN_POINT('Line Origine',(3.33899469256,4.03576948331,6.25)) ;
#67=CARTESIAN_POINT('Vertex',(3.33899469256,4.03576948331,-1.7763568394E-015)) ;
#70=CARTESIAN_POINT('Axis2P3D Location',(2.5,2.5,-1.7763568394E-015)) ;
#74=CARTESIAN_POINT('Vertex',(1.66100530744,0.964230516692,-1.7763568394E-015)) ;
#77=CARTESIAN_POINT('Line Origine',(1.66100530744,0.964230516692,6.25)) ;
#89=CARTESIAN_POINT('Axis2P3D Location',(2.5,4.25,12.5)) ;
#94=CARTESIAN_POINT('Axis2P3D Location',(2.5,2.5,12.5)) ;
#98=CARTESIAN_POINT('Vertex',(3.69856384583,4.69395640492,12.5)) ;
#100=CARTESIAN_POINT('Vertex',(1.30143615417,0.306043595076,12.5)) ;
#103=CARTESIAN_POINT('Axis2P3D Location',(2.5,2.5,12.5)) ;
#112=CARTESIAN_POINT('Axis2P3D Location',(2.5,2.5,12.5)) ;
#122=CARTESIAN_POINT('Axis2P3D Location',(2.5,2.5,6.25)) ;
#127=CARTESIAN_POINT('Axis2P3D Location',(2.5,2.5,-8.881784197E-016)) ;
#139=CARTESIAN_POINT('Axis2P3D Location',(2.5,4.25,-4.78396464036E-016)) ;
#144=CARTESIAN_POINT('Axis2P3D Location',(2.5,2.5,-4.78396464036E-016)) ;
#148=CARTESIAN_POINT('Vertex',(1.30143615417,0.306043595076,-4.78396464036E-016)) ;
#150=CARTESIAN_POINT('Vertex',(3.69856384583,4.69395640492,-4.78396464036E-016)) ;
#153=CARTESIAN_POINT('Axis2P3D Location',(2.5,2.5,-4.78396464036E-016)) ;
#167=CARTESIAN_POINT('Axis2P3D Location',(2.5,2.5,6.25)) ;
#172=CARTESIAN_POINT('Line Origine',(3.69856384651,4.69395640473,6.25)) ;
#176=CARTESIAN_POINT('Vertex',(3.69856384651,4.69395640473,4.65000000037)) ;
#178=CARTESIAN_POINT('Vertex',(3.69856384651,4.69395640473,5.34999999963)) ;
#181=CARTESIAN_POINT('Axis2P3D Location',(2.5,2.5,5.34999999963)) ;
#185=CARTESIAN_POINT('Vertex',(3.85646599663,4.6,5.34999999963)) ;
#188=CARTESIAN_POINT('Line Origine',(3.85646599663,4.6,6.25)) ;
#192=CARTESIAN_POINT('Vertex',(3.85646599663,4.6,6.65000000037)) ;
#195=CARTESIAN_POINT('Axis2P3D Location',(2.5,2.5,6.65000000037)) ;
#199=CARTESIAN_POINT('Vertex',(3.69856384651,4.69395640473,6.65000000037)) ;
#202=CARTESIAN_POINT('Line Origine',(3.69856384651,4.69395640473,6.25)) ;
#207=CARTESIAN_POINT('Line Origine',(1.30143615349,0.306043595274,6.25)) ;
#212=CARTESIAN_POINT('Line Origine',(3.69856384651,4.69395640473,6.25)) ;
#216=CARTESIAN_POINT('Vertex',(3.69856384651,4.69395640473,3.34999999963)) ;
#219=CARTESIAN_POINT('Axis2P3D Location',(2.5,2.5,3.34999999963)) ;
#223=CARTESIAN_POINT('Vertex',(3.85646599663,4.6,3.34999999963)) ;
#226=CARTESIAN_POINT('Line Origine',(3.85646599663,4.6,6.25)) ;
#230=CARTESIAN_POINT('Vertex',(3.85646599663,4.6,4.65000000037)) ;
#233=CARTESIAN_POINT('Axis2P3D Location',(2.5,2.5,4.65000000037)) ;
#253=CARTESIAN_POINT('Axis2P3D Location',(2.5,2.5,6.25)) ;
#258=CARTESIAN_POINT('Axis2P3D Location',(2.5,2.5,4.65000000037)) ;
#262=CARTESIAN_POINT('Vertex',(1.14353400337,4.6,4.65000000037)) ;
#265=CARTESIAN_POINT('Line Origine',(1.14353400337,4.6,6.25)) ;
#269=CARTESIAN_POINT('Vertex',(1.14353400337,4.6,3.34999999963)) ;
#272=CARTESIAN_POINT('Axis2P3D Location',(2.5,2.5,3.34999999963)) ;
#277=CARTESIAN_POINT('Axis2P3D Location',(2.5,2.5,6.65000000037)) ;
#281=CARTESIAN_POINT('Vertex',(1.14353400337,4.6,6.65000000037)) ;
#284=CARTESIAN_POINT('Line Origine',(1.14353400337,4.6,6.25)) ;
#288=CARTESIAN_POINT('Vertex',(1.14353400337,4.6,5.34999999963)) ;
#291=CARTESIAN_POINT('Axis2P3D Location',(2.5,2.5,5.34999999963)) ;
#311=CARTESIAN_POINT('Axis2P3D Location',(2.5,5.6,5.35)) ;
#316=CARTESIAN_POINT('Line Origine',(2.5,4.6,5.35)) ;
#327=CARTESIAN_POINT('Axis2P3D Location',(2.5,4.6,4.65)) ;
#332=CARTESIAN_POINT('Line Origine',(2.5,4.6,6.65)) ;
#344=CARTESIAN_POINT('Axis2P3D Location',(2.5,4.6,6.65)) ;
#355=CARTESIAN_POINT('Axis2P3D Location',(2.5,5.6,3.35)) ;
#360=CARTESIAN_POINT('Line Origine',(2.5,4.6,3.35)) ;
#371=CARTESIAN_POINT('Line Origine',(2.5,4.6,4.65)) ;
#383=CARTESIAN_POINT('Axis2P3D Location',(2.5,4.6,4.65)) ;
#22=DIRECTION('Axis2P3D Direction',(0.,0.,1.)) ;
#23=DIRECTION('Axis2P3D XDirection',(1.,0.,0.)) ;
#29=DIRECTION('Axis2P3D Direction',(1.,0.,0.)) ;
#30=DIRECTION('Axis2P3D XDirection',(0.,1.,0.)) ;
#34=DIRECTION('Axis2P3D Direction',(0.,1.,0.)) ;
#35=DIRECTION('Axis2P3D XDirection',(0.,0.,1.)) ;
#50=DIRECTION('Axis2P3D Direction',(0.,0.,-1.)) ;
#51=DIRECTION('Axis2P3D XDirection',(0.479425538604,0.87758256189,0.)) ;
#55=DIRECTION('Axis2P3D Direction',(0.,0.,-1.)) ;
#64=DIRECTION('Vector Direction',(0.,0.,-1.)) ;
#71=DIRECTION('Axis2P3D Direction',(0.,0.,-1.)) ;
#78=DIRECTION('Vector Direction',(0.,0.,-1.)) ;
#90=DIRECTION('Axis2P3D Direction',(0.,0.,-1.)) ;
#91=DIRECTION('Axis2P3D XDirection',(1.,0.,0.)) ;
#95=DIRECTION('Axis2P3D Direction',(0.,0.,-1.)) ;
#104=DIRECTION('Axis2P3D Direction',(0.,0.,-1.)) ;
#113=DIRECTION('Axis2P3D Direction',(0.,0.,-1.)) ;
#123=DIRECTION('Axis2P3D Direction',(0.,0.,-1.)) ;
#124=DIRECTION('Axis2P3D XDirection',(-0.479425538604,-0.87758256189,0.)) ;
#128=DIRECTION('Axis2P3D Direction',(0.,0.,-1.)) ;
#140=DIRECTION('Axis2P3D Direction',(0.,0.,-1.)) ;
#141=DIRECTION('Axis2P3D XDirection',(1.,0.,0.)) ;
#145=DIRECTION('Axis2P3D Direction',(0.,0.,-1.)) ;
#154=DIRECTION('Axis2P3D Direction',(0.,0.,-1.)) ;
#168=DIRECTION('Axis2P3D Direction',(0.,0.,-1.)) ;
#169=DIRECTION('Axis2P3D XDirection',(0.479425538604,0.87758256189,0.)) ;
#173=DIRECTION('Vector Direction',(0.,0.,-1.)) ;
#182=DIRECTION('Axis2P3D Direction',(0.,0.,-1.)) ;
#189=DIRECTION('Vector Direction',(0.,0.,-1.)) ;
#196=DIRECTION('Axis2P3D Direction',(0.,0.,-1.)) ;
#203=DIRECTION('Vector Direction',(0.,0.,-1.)) ;
#208=DIRECTION('Vector Direction',(0.,0.,-1.)) ;
#213=DIRECTION('Vector Direction',(0.,0.,-1.)) ;
#220=DIRECTION('Axis2P3D Direction',(0.,0.,-1.)) ;
#227=DIRECTION('Vector Direction',(0.,0.,-1.)) ;
#234=DIRECTION('Axis2P3D Direction',(0.,0.,-1.)) ;
#254=DIRECTION('Axis2P3D Direction',(0.,0.,-1.)) ;
#255=DIRECTION('Axis2P3D XDirection',(-0.479425538604,-0.87758256189,0.)) ;
#259=DIRECTION('Axis2P3D Direction',(0.,0.,-1.)) ;
#266=DIRECTION('Vector Direction',(0.,0.,-1.)) ;
#273=DIRECTION('Axis2P3D Direction',(0.,0.,-1.)) ;
#278=DIRECTION('Axis2P3D Direction',(0.,0.,-1.)) ;
#285=DIRECTION('Vector Direction',(0.,0.,-1.)) ;
#292=DIRECTION('Axis2P3D Direction',(0.,0.,-1.)) ;
#312=DIRECTION('Axis2P3D Direction',(-0.,-0.,-1.)) ;
#313=DIRECTION('Axis2P3D XDirection',(0.,-1.,0.)) ;
#317=DIRECTION('Vector Direction',(-1.,0.,0.)) ;
#328=DIRECTION('Axis2P3D Direction',(0.,1.,0.)) ;
#329=DIRECTION('Axis2P3D XDirection',(0.,0.,-1.)) ;
#333=DIRECTION('Vector Direction',(-1.,0.,0.)) ;
#345=DIRECTION('Axis2P3D Direction',(0.,-0.,1.)) ;
#346=DIRECTION('Axis2P3D XDirection',(0.,1.,0.)) ;
#356=DIRECTION('Axis2P3D Direction',(-0.,-0.,-1.)) ;
#357=DIRECTION('Axis2P3D XDirection',(0.,-1.,0.)) ;
#361=DIRECTION('Vector Direction',(-1.,0.,0.)) ;
#372=DIRECTION('Vector Direction',(-1.,0.,0.)) ;
#384=DIRECTION('Axis2P3D Direction',(0.,-0.,1.)) ;
#385=DIRECTION('Axis2P3D XDirection',(0.,1.,0.)) ;
#47=PRESENTATION_LAYER_ASSIGNMENT('1',' ',(#38)) ;
#8=PRODUCT_RELATED_PRODUCT_CATEGORY('part',$,(#5)) ;
#7=PRODUCT_CATEGORY('part','specification') ;
#46=STYLED_ITEM(' ',(#45),#38) ;
#45=PRESENTATION_STYLE_ASSIGNMENT((#44)) ;
#44=SURFACE_STYLE_USAGE(.BOTH.,#43) ;
#43=SURFACE_SIDE_STYLE(' ',(#42)) ;
#42=SURFACE_STYLE_FILL_AREA(#41) ;
#41=FILL_AREA_STYLE(' ',(#40)) ;
#40=FILL_AREA_STYLE_COLOUR(' ',#39) ;
#65=VECTOR('Line Direction',#64,1.) ;
#79=VECTOR('Line Direction',#78,1.) ;
#174=VECTOR('Line Direction',#173,1.) ;
#190=VECTOR('Line Direction',#189,1.) ;
#204=VECTOR('Line Direction',#203,1.) ;
#209=VECTOR('Line Direction',#208,1.) ;
#214=VECTOR('Line Direction',#213,1.) ;
#228=VECTOR('Line Direction',#227,1.) ;
#267=VECTOR('Line Direction',#266,1.) ;
#286=VECTOR('Line Direction',#285,1.) ;
#318=VECTOR('Line Direction',#317,1.) ;
#334=VECTOR('Line Direction',#333,1.) ;
#362=VECTOR('Line Direction',#361,1.) ;
#373=VECTOR('Line Direction',#372,1.) ;
#15=UNCERTAINTY_MEASURE_WITH_UNIT(LENGTH_MEASURE(0.005),#12,'distance_accuracy_value','CONFUSED CURVE UNCERTAINTY') ;
#395=SHAPE_REPRESENTATION_RELATIONSHIP(' ',' ',#19,#394) ;
#83=ORIENTED_EDGE('',*,*,#62,.F.) ;
#84=ORIENTED_EDGE('',*,*,#69,.T.) ;
#85=ORIENTED_EDGE('',*,*,#76,.T.) ;
#86=ORIENTED_EDGE('',*,*,#81,.F.) ;
#109=ORIENTED_EDGE('',*,*,#102,.F.) ;
#110=ORIENTED_EDGE('',*,*,#107,.F.) ;
#118=ORIENTED_EDGE('',*,*,#116,.T.) ;
#119=ORIENTED_EDGE('',*,*,#62,.T.) ;
#133=ORIENTED_EDGE('',*,*,#116,.F.) ;
#134=ORIENTED_EDGE('',*,*,#81,.T.) ;
#135=ORIENTED_EDGE('',*,*,#131,.T.) ;
#136=ORIENTED_EDGE('',*,*,#69,.F.) ;
#159=ORIENTED_EDGE('',*,*,#152,.T.) ;
#160=ORIENTED_EDGE('',*,*,#157,.T.) ;
#163=ORIENTED_EDGE('',*,*,#76,.F.) ;
#164=ORIENTED_EDGE('',*,*,#131,.F.) ;
#239=ORIENTED_EDGE('',*,*,#180,.T.) ;
#240=ORIENTED_EDGE('',*,*,#187,.T.) ;
#241=ORIENTED_EDGE('',*,*,#194,.F.) ;
#242=ORIENTED_EDGE('',*,*,#201,.T.) ;
#243=ORIENTED_EDGE('',*,*,#206,.T.) ;
#244=ORIENTED_EDGE('',*,*,#102,.T.) ;
#245=ORIENTED_EDGE('',*,*,#211,.F.) ;
#246=ORIENTED_EDGE('',*,*,#157,.F.) ;
#247=ORIENTED_EDGE('',*,*,#218,.T.) ;
#248=ORIENTED_EDGE('',*,*,#225,.T.) ;
#249=ORIENTED_EDGE('',*,*,#232,.F.) ;
#250=ORIENTED_EDGE('',*,*,#237,.T.) ;
#297=ORIENTED_EDGE('',*,*,#180,.F.) ;
#298=ORIENTED_EDGE('',*,*,#264,.T.) ;
#299=ORIENTED_EDGE('',*,*,#271,.T.) ;
#300=ORIENTED_EDGE('',*,*,#276,.T.) ;
#301=ORIENTED_EDGE('',*,*,#218,.F.) ;
#302=ORIENTED_EDGE('',*,*,#152,.F.) ;
#303=ORIENTED_EDGE('',*,*,#211,.T.) ;
#304=ORIENTED_EDGE('',*,*,#107,.T.) ;
#305=ORIENTED_EDGE('',*,*,#206,.F.) ;
#306=ORIENTED_EDGE('',*,*,#283,.T.) ;
#307=ORIENTED_EDGE('',*,*,#290,.T.) ;
#308=ORIENTED_EDGE('',*,*,#295,.T.) ;
#322=ORIENTED_EDGE('',*,*,#187,.F.) ;
#323=ORIENTED_EDGE('',*,*,#295,.F.) ;
#324=ORIENTED_EDGE('',*,*,#320,.F.) ;
#338=ORIENTED_EDGE('',*,*,#194,.T.) ;
#339=ORIENTED_EDGE('',*,*,#320,.T.) ;
#340=ORIENTED_EDGE('',*,*,#290,.F.) ;
#341=ORIENTED_EDGE('',*,*,#336,.F.) ;
#350=ORIENTED_EDGE('',*,*,#283,.F.) ;
#351=ORIENTED_EDGE('',*,*,#201,.F.) ;
#352=ORIENTED_EDGE('',*,*,#336,.T.) ;
#366=ORIENTED_EDGE('',*,*,#225,.F.) ;
#367=ORIENTED_EDGE('',*,*,#276,.F.) ;
#368=ORIENTED_EDGE('',*,*,#364,.F.) ;
#377=ORIENTED_EDGE('',*,*,#232,.T.) ;
#378=ORIENTED_EDGE('',*,*,#364,.T.) ;
#379=ORIENTED_EDGE('',*,*,#271,.F.) ;
#380=ORIENTED_EDGE('',*,*,#375,.F.) ;
#389=ORIENTED_EDGE('',*,*,#264,.F.) ;
#390=ORIENTED_EDGE('',*,*,#237,.F.) ;
#391=ORIENTED_EDGE('',*,*,#375,.T.) ;
#120=FACE_BOUND('',#117,.T.) ;
#165=FACE_BOUND('',#162,.T.) ;
#48=CLOSED_SHELL('Closed Shell',(#88,#121,#138,#166,#252,#310,#326,#343,#354,#370,#382,#393)) ;
#394=ADVANCED_BREP_SHAPE_REPRESENTATION('NONE',(#38),#16) ;
#88=ADVANCED_FACE('K\X2\00F6\X0\rper.2',(#87),#53,.F.) ;
#121=ADVANCED_FACE('K\X2\00F6\X0\rper.2',(#111,#120),#93,.F.) ;
#138=ADVANCED_FACE('K\X2\00F6\X0\rper.2',(#137),#126,.F.) ;
#166=ADVANCED_FACE('K\X2\00F6\X0\rper.2',(#161,#165),#143,.T.) ;
#252=ADVANCED_FACE('K\X2\00F6\X0\rper.2',(#251),#171,.T.) ;
#310=ADVANCED_FACE('K\X2\00F6\X0\rper.2',(#309),#257,.T.) ;
#326=ADVANCED_FACE('K\X2\00F6\X0\rper.2',(#325),#315,.F.) ;
#343=ADVANCED_FACE('K\X2\00F6\X0\rper.2',(#342),#331,.T.) ;
#354=ADVANCED_FACE('K\X2\00F6\X0\rper.2',(#353),#348,.F.) ;
#370=ADVANCED_FACE('K\X2\00F6\X0\rper.2',(#369),#359,.F.) ;
#382=ADVANCED_FACE('K\X2\00F6\X0\rper.2',(#381),#331,.T.) ;
#393=ADVANCED_FACE('K\X2\00F6\X0\rper.2',(#392),#387,.F.) ;
#4=APPLICATION_PROTOCOL_DEFINITION('international standard','automotive_design',2001,#1) ;
#38=MANIFOLD_SOLID_BREP('K\X2\00F6\X0\rper.2',#48) ;
#57=CIRCLE('generated circle',#56,1.75) ;
#73=CIRCLE('generated circle',#72,1.75) ;
#97=CIRCLE('generated circle',#96,2.49999999985) ;
#106=CIRCLE('generated circle',#105,2.49999999985) ;
#115=CIRCLE('generated circle',#114,1.75000000001) ;
#130=CIRCLE('generated circle',#129,1.75) ;
#147=CIRCLE('generated circle',#146,2.49999999985) ;
#156=CIRCLE('generated circle',#155,2.49999999985) ;
#184=CIRCLE('generated circle',#183,2.5) ;
#198=CIRCLE('generated circle',#197,2.5) ;
#222=CIRCLE('generated circle',#221,2.5) ;
#236=CIRCLE('generated circle',#235,2.5) ;
#261=CIRCLE('generated circle',#260,2.5) ;
#275=CIRCLE('generated circle',#274,2.5) ;
#280=CIRCLE('generated circle',#279,2.5) ;
#294=CIRCLE('generated circle',#293,2.5) ;
#39=COLOUR_RGB('Colour',0.823529411765,0.823529411765,1.) ;
#26=CONSTRUCTIVE_GEOMETRY_REPRESENTATION('supplemental geometry',(#25,#32,#37),#16) ;
#27=CONSTRUCTIVE_GEOMETRY_REPRESENTATION_RELATIONSHIP('supplemental geometry','',#19,#26) ;
#53=CYLINDRICAL_SURFACE('generated cylinder',#52,1.75) ;
#126=CYLINDRICAL_SURFACE('generated cylinder',#125,1.75) ;
#171=CYLINDRICAL_SURFACE('generated cylinder',#170,2.5) ;
#257=CYLINDRICAL_SURFACE('generated cylinder',#256,2.5) ;
#62=EDGE_CURVE('',#59,#61,#57,.T.) ;
#69=EDGE_CURVE('',#59,#68,#66,.T.) ;
#76=EDGE_CURVE('',#68,#75,#73,.T.) ;
#81=EDGE_CURVE('',#61,#75,#80,.T.) ;
#102=EDGE_CURVE('',#99,#101,#97,.T.) ;
#107=EDGE_CURVE('',#101,#99,#106,.T.) ;
#116=EDGE_CURVE('',#61,#59,#115,.T.) ;
#131=EDGE_CURVE('',#75,#68,#130,.T.) ;
#152=EDGE_CURVE('',#149,#151,#147,.T.) ;
#157=EDGE_CURVE('',#151,#149,#156,.T.) ;
#180=EDGE_CURVE('',#177,#179,#175,.F.) ;
#187=EDGE_CURVE('',#179,#186,#184,.T.) ;
#194=EDGE_CURVE('',#193,#186,#191,.T.) ;
#201=EDGE_CURVE('',#193,#200,#198,.F.) ;
#206=EDGE_CURVE('',#200,#99,#205,.F.) ;
#211=EDGE_CURVE('',#149,#101,#210,.F.) ;
#218=EDGE_CURVE('',#151,#217,#215,.F.) ;
#225=EDGE_CURVE('',#217,#224,#222,.T.) ;
#232=EDGE_CURVE('',#231,#224,#229,.T.) ;
#237=EDGE_CURVE('',#231,#177,#236,.F.) ;
#264=EDGE_CURVE('',#177,#263,#261,.F.) ;
#271=EDGE_CURVE('',#263,#270,#268,.T.) ;
#276=EDGE_CURVE('',#270,#217,#275,.T.) ;
#283=EDGE_CURVE('',#200,#282,#280,.F.) ;
#290=EDGE_CURVE('',#282,#289,#287,.T.) ;
#295=EDGE_CURVE('',#289,#179,#294,.T.) ;
#320=EDGE_CURVE('',#186,#289,#319,.T.) ;
#336=EDGE_CURVE('',#193,#282,#335,.T.) ;
#364=EDGE_CURVE('',#224,#270,#363,.T.) ;
#375=EDGE_CURVE('',#231,#263,#374,.T.) ;
#82=EDGE_LOOP('',(#83,#84,#85,#86)) ;
#108=EDGE_LOOP('',(#109,#110)) ;
#117=EDGE_LOOP('',(#118,#119)) ;
#132=EDGE_LOOP('',(#133,#134,#135,#136)) ;
#158=EDGE_LOOP('',(#159,#160)) ;
#162=EDGE_LOOP('',(#163,#164)) ;
#238=EDGE_LOOP('',(#239,#240,#241,#242,#243,#244,#245,#246,#247,#248,#249,#250)) ;
#296=EDGE_LOOP('',(#297,#298,#299,#300,#301,#302,#303,#304,#305,#306,#307,#308)) ;
#321=EDGE_LOOP('',(#322,#323,#324)) ;
#337=EDGE_LOOP('',(#338,#339,#340,#341)) ;
#349=EDGE_LOOP('',(#350,#351,#352)) ;
#365=EDGE_LOOP('',(#366,#367,#368)) ;
#376=EDGE_LOOP('',(#377,#378,#379,#380)) ;
#388=EDGE_LOOP('',(#389,#390,#391)) ;
#87=FACE_OUTER_BOUND('',#82,.T.) ;
#111=FACE_OUTER_BOUND('',#108,.T.) ;
#137=FACE_OUTER_BOUND('',#132,.T.) ;
#161=FACE_OUTER_BOUND('',#158,.T.) ;
#251=FACE_OUTER_BOUND('',#238,.T.) ;
#309=FACE_OUTER_BOUND('',#296,.T.) ;
#325=FACE_OUTER_BOUND('',#321,.T.) ;
#342=FACE_OUTER_BOUND('',#337,.T.) ;
#353=FACE_OUTER_BOUND('',#349,.T.) ;
#369=FACE_OUTER_BOUND('',#365,.T.) ;
#381=FACE_OUTER_BOUND('',#376,.T.) ;
#392=FACE_OUTER_BOUND('',#388,.T.) ;
#66=LINE('Line',#63,#65) ;
#80=LINE('Line',#77,#79) ;
#175=LINE('Line',#172,#174) ;
#191=LINE('Line',#188,#190) ;
#205=LINE('Line',#202,#204) ;
#210=LINE('Line',#207,#209) ;
#215=LINE('Line',#212,#214) ;
#229=LINE('Line',#226,#228) ;
#268=LINE('Line',#265,#267) ;
#287=LINE('Line',#284,#286) ;
#319=LINE('Line',#316,#318) ;
#335=LINE('Line',#332,#334) ;
#363=LINE('Line',#360,#362) ;
#374=LINE('Line',#371,#373) ;
#25=PLANE('Referenz_xy',#24) ;
#32=PLANE('Referenz_yz',#31) ;
#37=PLANE('Referenz_zx',#36) ;
#93=PLANE('',#92) ;
#143=PLANE('',#142) ;
#315=PLANE('',#314) ;
#331=PLANE('',#330) ;
#348=PLANE('',#347) ;
#359=PLANE('',#358) ;
#387=PLANE('',#386) ;
#9=PRODUCT_CATEGORY_RELATIONSHIP(' ',' ',#7,#8) ;
#6=PRODUCT_DEFINITION_FORMATION_WITH_SPECIFIED_SOURCE('',' ',#5,.NOT_KNOWN.) ;
#20=SHAPE_DEFINITION_REPRESENTATION(#11,#19) ;
#59=VERTEX_POINT('',#58) ;
#61=VERTEX_POINT('',#60) ;
#68=VERTEX_POINT('',#67) ;
#75=VERTEX_POINT('',#74) ;
#99=VERTEX_POINT('',#98) ;
#101=VERTEX_POINT('',#100) ;
#149=VERTEX_POINT('',#148) ;
#151=VERTEX_POINT('',#150) ;
#177=VERTEX_POINT('',#176) ;
#179=VERTEX_POINT('',#178) ;
#186=VERTEX_POINT('',#185) ;
#193=VERTEX_POINT('',#192) ;
#200=VERTEX_POINT('',#199) ;
#217=VERTEX_POINT('',#216) ;
#224=VERTEX_POINT('',#223) ;
#231=VERTEX_POINT('',#230) ;
#263=VERTEX_POINT('',#262) ;
#270=VERTEX_POINT('',#269) ;
#282=VERTEX_POINT('',#281) ;
#289=VERTEX_POINT('',#288) ;
#12=(LENGTH_UNIT()NAMED_UNIT(*)SI_UNIT(.MILLI.,.METRE.)) ;
#13=(NAMED_UNIT(*)PLANE_ANGLE_UNIT()SI_UNIT($,.RADIAN.)) ;
#14=(NAMED_UNIT(*)SI_UNIT($,.STERADIAN.)SOLID_ANGLE_UNIT()) ;
#16=(GEOMETRIC_REPRESENTATION_CONTEXT(3)GLOBAL_UNCERTAINTY_ASSIGNED_CONTEXT((#15))GLOBAL_UNIT_ASSIGNED_CONTEXT((#12,#13,#14))REPRESENTATION_CONTEXT(' ',' ')) ;
ENDSEC;
END-ISO-10303-21;
