ISO-10303-21;
HEADER;
FILE_DESCRIPTION(('CATIA V5 STEP','CAx-IF Rec.Pracs.--- Model Styling and Organization---1.4--- 2014-01-23'),'2;1');

FILE_NAME ('224182-8_0_2619910000_67795_WS-A_8X16_MM_WS_Simple3D.stp','2021-06-25T18:57:23+00:00',('none'),('Weidmueller'),'CATIA Version 5-6 Release 2016 SP3 HF44','CATIA V5 STEP AP214','none');

FILE_SCHEMA(('AUTOMOTIVE_DESIGN { 1 0 10303 214 1 1 1 1 }'));

ENDSEC;
DATA;
#5=PRODUCT('67795_WS-A_8X16_MM','','VERBINDERMARKIERER',(#2)) ;
#2=PRODUCT_CONTEXT(' ',#1,'mechanical') ;
#1=APPLICATION_CONTEXT('automotive design') ;
#10=PRODUCT_DEFINITION('',' ',#6,#3) ;
#3=PRODUCT_DEFINITION_CONTEXT('part definition',#1,' ') ;
#11=PRODUCT_DEFINITION_SHAPE(' ',' ',#10) ;
#577=MECHANICAL_DESIGN_GEOMETRIC_PRESENTATION_REPRESENTATION(' ',(#29),#16) ;
#19=SHAPE_REPRESENTATION(' ',(#18),#16) ;
#18=AXIS2_PLACEMENT_3D(' ',#17,$,$) ;
#34=AXIS2_PLACEMENT_3D('Plane Axis2P3D',#31,#32,#33) ;
#106=AXIS2_PLACEMENT_3D('Plane Axis2P3D',#103,#104,#105) ;
#178=AXIS2_PLACEMENT_3D('Plane Axis2P3D',#175,#176,#177) ;
#200=AXIS2_PLACEMENT_3D('Plane Axis2P3D',#197,#198,#199) ;
#217=AXIS2_PLACEMENT_3D('Plane Axis2P3D',#214,#215,#216) ;
#234=AXIS2_PLACEMENT_3D('Plane Axis2P3D',#231,#232,#233) ;
#263=AXIS2_PLACEMENT_3D('Plane Axis2P3D',#260,#261,#262) ;
#303=AXIS2_PLACEMENT_3D('Plane Axis2P3D',#300,#301,#302) ;
#334=AXIS2_PLACEMENT_3D('Plane Axis2P3D',#331,#332,#333) ;
#358=AXIS2_PLACEMENT_3D('Plane Axis2P3D',#355,#356,#357) ;
#443=AXIS2_PLACEMENT_3D('Plane Axis2P3D',#440,#441,#442) ;
#467=AXIS2_PLACEMENT_3D('Plane Axis2P3D',#464,#465,#466) ;
#484=AXIS2_PLACEMENT_3D('Plane Axis2P3D',#481,#482,#483) ;
#520=AXIS2_PLACEMENT_3D('Plane Axis2P3D',#517,#518,#519) ;
#554=AXIS2_PLACEMENT_3D('Plane Axis2P3D',#551,#552,#553) ;
#566=AXIS2_PLACEMENT_3D('Plane Axis2P3D',#563,#564,#565) ;
#17=CARTESIAN_POINT(' ',(0.,0.,0.)) ;
#31=CARTESIAN_POINT('Axis2P3D Location',(16.,3.9,2.06214366)) ;
#36=CARTESIAN_POINT('Line Origine',(16.,3.9,1.56214366)) ;
#40=CARTESIAN_POINT('Vertex',(16.,6.75,1.56214366)) ;
#42=CARTESIAN_POINT('Vertex',(16.,1.05,1.56214366)) ;
#45=CARTESIAN_POINT('Line Origine',(16.,6.75,1.81214366)) ;
#49=CARTESIAN_POINT('Vertex',(16.,6.75,2.06214366)) ;
#52=CARTESIAN_POINT('Line Origine',(16.,7.275,2.06214366)) ;
#56=CARTESIAN_POINT('Vertex',(16.,7.8,2.06214366)) ;
#59=CARTESIAN_POINT('Line Origine',(16.,7.8,2.46214366)) ;
#63=CARTESIAN_POINT('Vertex',(16.,7.8,2.86214366)) ;
#66=CARTESIAN_POINT('Line Origine',(16.,3.9,2.86214366)) ;
#70=CARTESIAN_POINT('Vertex',(16.,-3.95103337884E-016,2.86214366)) ;
#73=CARTESIAN_POINT('Line Origine',(16.,-4.19596273867E-016,2.46214366)) ;
#77=CARTESIAN_POINT('Vertex',(16.,-4.4408920985E-016,2.06214366)) ;
#80=CARTESIAN_POINT('Line Origine',(16.,0.525,2.06214366)) ;
#84=CARTESIAN_POINT('Vertex',(16.,1.05,2.06214366)) ;
#87=CARTESIAN_POINT('Line Origine',(16.,1.05,1.81214366)) ;
#103=CARTESIAN_POINT('Axis2P3D Location',(0.,3.9,2.06214366)) ;
#108=CARTESIAN_POINT('Line Origine',(-1.74512168878E-016,1.05,1.81214366)) ;
#112=CARTESIAN_POINT('Vertex',(-1.74512168878E-016,1.05,2.06214366)) ;
#114=CARTESIAN_POINT('Vertex',(-1.74512168878E-016,1.05,1.56214366)) ;
#117=CARTESIAN_POINT('Line Origine',(-2.06659147356E-016,0.525,2.06214366)) ;
#121=CARTESIAN_POINT('Vertex',(-2.38806125834E-016,4.4408920985E-016,2.06214366)) ;
#124=CARTESIAN_POINT('Line Origine',(-2.38806125834E-016,4.68582145833E-016,2.46214366)) ;
#128=CARTESIAN_POINT('Vertex',(-2.38806125834E-016,4.93075081816E-016,2.86214366)) ;
#131=CARTESIAN_POINT('Line Origine',(0.,3.9,2.86214366)) ;
#135=CARTESIAN_POINT('Vertex',(2.38806125834E-016,7.8,2.86214366)) ;
#138=CARTESIAN_POINT('Line Origine',(2.38806125834E-016,7.8,2.46214366)) ;
#142=CARTESIAN_POINT('Vertex',(2.38806125834E-016,7.8,2.06214366)) ;
#145=CARTESIAN_POINT('Line Origine',(2.06659147356E-016,7.275,2.06214366)) ;
#149=CARTESIAN_POINT('Vertex',(1.74512168878E-016,6.75,2.06214366)) ;
#152=CARTESIAN_POINT('Line Origine',(1.74512168878E-016,6.75,1.81214366)) ;
#156=CARTESIAN_POINT('Vertex',(1.74512168878E-016,6.75,1.56214366)) ;
#159=CARTESIAN_POINT('Line Origine',(0.,3.9,1.56214366)) ;
#175=CARTESIAN_POINT('Axis2P3D Location',(8.,1.05,2.06214366)) ;
#180=CARTESIAN_POINT('Line Origine',(8.,6.75,2.06214366)) ;
#185=CARTESIAN_POINT('Line Origine',(8.,7.8,2.06214366)) ;
#197=CARTESIAN_POINT('Axis2P3D Location',(8.,7.8,2.06214366)) ;
#202=CARTESIAN_POINT('Line Origine',(8.,7.8,2.86214366)) ;
#214=CARTESIAN_POINT('Axis2P3D Location',(8.,0.,2.86214366)) ;
#219=CARTESIAN_POINT('Line Origine',(8.,0.,2.86214366)) ;
#231=CARTESIAN_POINT('Axis2P3D Location',(8.,0.,2.86214366)) ;
#236=CARTESIAN_POINT('Line Origine',(8.,-4.89858719659E-017,2.06214366)) ;
#248=CARTESIAN_POINT('Line Origine',(8.,1.05,2.06214366)) ;
#260=CARTESIAN_POINT('Axis2P3D Location',(8.,1.9,1.56214366)) ;
#265=CARTESIAN_POINT('Line Origine',(0.7,1.9,0.781071830416)) ;
#269=CARTESIAN_POINT('Vertex',(0.7,1.9,8.3198095148E-010)) ;
#271=CARTESIAN_POINT('Vertex',(0.7,1.9,1.56214366)) ;
#274=CARTESIAN_POINT('Line Origine',(8.,1.9,8.31980262461E-010)) ;
#278=CARTESIAN_POINT('Vertex',(15.3,1.9,8.31981395569E-010)) ;
#281=CARTESIAN_POINT('Line Origine',(15.3,1.9,0.781071830416)) ;
#285=CARTESIAN_POINT('Vertex',(15.3,1.9,1.56214366)) ;
#288=CARTESIAN_POINT('Line Origine',(8.,1.9,1.56214366)) ;
#300=CARTESIAN_POINT('Axis2P3D Location',(0.7,5.9,8.3198070655E-010)) ;
#305=CARTESIAN_POINT('Line Origine',(0.7,2.11053305997,8.31980938588E-010)) ;
#309=CARTESIAN_POINT('Vertex',(0.7,2.32106611995,8.31980925697E-010)) ;
#312=CARTESIAN_POINT('Line Origine',(0.7,2.31982062594,1.56214366)) ;
#316=CARTESIAN_POINT('Vertex',(0.7,2.73964125188,1.56214366)) ;
#319=CARTESIAN_POINT('Line Origine',(0.7,2.53035368592,0.781071830416)) ;
#331=CARTESIAN_POINT('Axis2P3D Location',(8.,1.9,8.3198070655E-010)) ;
#336=CARTESIAN_POINT('Line Origine',(8.,2.32106611995,8.31980680768E-010)) ;
#340=CARTESIAN_POINT('Vertex',(15.3,2.32106611995,8.31981369786E-010)) ;
#343=CARTESIAN_POINT('Line Origine',(15.3,2.11053305997,8.31980693659E-010)) ;
#355=CARTESIAN_POINT('Axis2P3D Location',(8.,5.47893388005,8.31980262461E-010)) ;
#360=CARTESIAN_POINT('Line Origine',(8.,5.47893388005,8.31980262461E-010)) ;
#364=CARTESIAN_POINT('Vertex',(0.7,5.47893388005,8.31980732333E-010)) ;
#366=CARTESIAN_POINT('Vertex',(15.3,5.47893388005,8.31981176423E-010)) ;
#369=CARTESIAN_POINT('Line Origine',(15.3,5.26964631408,0.781071830416)) ;
#373=CARTESIAN_POINT('Vertex',(15.3,5.06035874812,1.56214366)) ;
#376=CARTESIAN_POINT('Line Origine',(8.,5.06035874812,1.56214366)) ;
#380=CARTESIAN_POINT('Vertex',(0.7,5.06035874812,1.56214366)) ;
#383=CARTESIAN_POINT('Line Origine',(0.7,5.26964631408,0.781071830416)) ;
#395=CARTESIAN_POINT('Line Origine',(0.7,5.48017937406,1.56214366)) ;
#399=CARTESIAN_POINT('Vertex',(0.7,5.9,1.56214366)) ;
#402=CARTESIAN_POINT('Line Origine',(0.7,5.9,0.781071830416)) ;
#406=CARTESIAN_POINT('Vertex',(0.7,5.9,8.31980461621E-010)) ;
#409=CARTESIAN_POINT('Line Origine',(0.7,5.68946694003,8.31980719442E-010)) ;
#421=CARTESIAN_POINT('Line Origine',(8.,5.9,8.31980461621E-010)) ;
#425=CARTESIAN_POINT('Vertex',(15.3,5.9,8.31980461621E-010)) ;
#428=CARTESIAN_POINT('Line Origine',(15.3,5.68946694003,8.31980474513E-010)) ;
#440=CARTESIAN_POINT('Axis2P3D Location',(8.,2.32106611995,8.31980262461E-010)) ;
#445=CARTESIAN_POINT('Line Origine',(8.,2.73964125188,1.56214366)) ;
#449=CARTESIAN_POINT('Vertex',(15.3,2.73964125188,1.56214366)) ;
#452=CARTESIAN_POINT('Line Origine',(15.3,2.53035368592,0.781071830416)) ;
#464=CARTESIAN_POINT('Axis2P3D Location',(15.3,5.9,1.56214366)) ;
#469=CARTESIAN_POINT('Line Origine',(15.3,2.31982062594,1.56214366)) ;
#481=CARTESIAN_POINT('Axis2P3D Location',(8.,5.9,1.56214366)) ;
#486=CARTESIAN_POINT('Line Origine',(8.,5.9,1.56214366)) ;
#490=CARTESIAN_POINT('Vertex',(15.3,5.9,1.56214366)) ;
#493=CARTESIAN_POINT('Line Origine',(15.3,5.9,0.781071830416)) ;
#505=CARTESIAN_POINT('Line Origine',(15.3,5.48017937406,1.56214366)) ;
#517=CARTESIAN_POINT('Axis2P3D Location',(8.,1.05,1.56214366)) ;
#522=CARTESIAN_POINT('Line Origine',(8.,1.05,1.56214366)) ;
#527=CARTESIAN_POINT('Line Origine',(8.,6.75,1.56214366)) ;
#551=CARTESIAN_POINT('Axis2P3D Location',(8.,6.75,2.06214366)) ;
#563=CARTESIAN_POINT('Axis2P3D Location',(8.,1.05,2.06214366)) ;
#32=DIRECTION('Axis2P3D Direction',(1.,-6.12323399574E-017,3.74939945665E-033)) ;
#33=DIRECTION('Axis2P3D XDirection',(6.12323399574E-017,1.,-6.12323399574E-017)) ;
#37=DIRECTION('Vector Direction',(0.,1.,0.)) ;
#46=DIRECTION('Vector Direction',(0.,0.,-1.)) ;
#53=DIRECTION('Vector Direction',(0.,-1.,4.22942104619E-016)) ;
#60=DIRECTION('Vector Direction',(0.,0.,1.)) ;
#67=DIRECTION('Vector Direction',(0.,1.,-1.13869028167E-016)) ;
#74=DIRECTION('Vector Direction',(0.,-6.12323399574E-017,-1.)) ;
#81=DIRECTION('Vector Direction',(0.,-1.,4.22942104619E-016)) ;
#88=DIRECTION('Vector Direction',(0.,0.,-1.)) ;
#104=DIRECTION('Axis2P3D Direction',(1.,-6.12323399574E-017,3.74939945665E-033)) ;
#105=DIRECTION('Axis2P3D XDirection',(6.12323399574E-017,1.,-6.12323399574E-017)) ;
#109=DIRECTION('Vector Direction',(0.,0.,-1.)) ;
#118=DIRECTION('Vector Direction',(-6.12323399574E-017,-1.,4.22942104619E-016)) ;
#125=DIRECTION('Vector Direction',(0.,-6.12323399574E-017,-1.)) ;
#132=DIRECTION('Vector Direction',(6.12323399574E-017,1.,-1.13869028167E-016)) ;
#139=DIRECTION('Vector Direction',(0.,0.,1.)) ;
#146=DIRECTION('Vector Direction',(-6.12323399574E-017,-1.,4.22942104619E-016)) ;
#153=DIRECTION('Vector Direction',(0.,0.,-1.)) ;
#160=DIRECTION('Vector Direction',(-6.12323399574E-017,-1.,0.)) ;
#176=DIRECTION('Axis2P3D Direction',(0.,6.12323399574E-017,1.)) ;
#177=DIRECTION('Axis2P3D XDirection',(-6.12323399574E-017,-1.,6.12323399574E-017)) ;
#181=DIRECTION('Vector Direction',(1.,-1.11022302463E-016,0.)) ;
#186=DIRECTION('Vector Direction',(1.,-1.11022302463E-016,0.)) ;
#198=DIRECTION('Axis2P3D Direction',(6.12323399574E-017,1.,-6.12323399574E-017)) ;
#199=DIRECTION('Axis2P3D XDirection',(0.,6.12323399574E-017,1.)) ;
#203=DIRECTION('Vector Direction',(1.,-1.11022302463E-016,0.)) ;
#215=DIRECTION('Axis2P3D Direction',(0.,-6.12323399574E-017,-1.)) ;
#216=DIRECTION('Axis2P3D XDirection',(6.12323399574E-017,1.,-6.12323399574E-017)) ;
#220=DIRECTION('Vector Direction',(1.,-6.12323399574E-017,0.)) ;
#232=DIRECTION('Axis2P3D Direction',(-6.12323399574E-017,-1.,6.12323399574E-017)) ;
#233=DIRECTION('Axis2P3D XDirection',(0.,-6.12323399574E-017,-1.)) ;
#237=DIRECTION('Vector Direction',(1.,-6.12323399574E-017,0.)) ;
#249=DIRECTION('Vector Direction',(1.,-5.55111512313E-017,0.)) ;
#261=DIRECTION('Axis2P3D Direction',(-6.12323399574E-017,-1.,6.12323399574E-017)) ;
#262=DIRECTION('Axis2P3D XDirection',(0.,-6.12323399574E-017,-1.)) ;
#266=DIRECTION('Vector Direction',(2.27425541688E-015,0.,1.)) ;
#275=DIRECTION('Vector Direction',(1.,-6.08341383356E-017,0.)) ;
#282=DIRECTION('Vector Direction',(0.,0.,-1.)) ;
#289=DIRECTION('Vector Direction',(1.,-6.08341383356E-017,0.)) ;
#301=DIRECTION('Axis2P3D Direction',(1.,-6.12323399574E-017,3.74939945665E-033)) ;
#302=DIRECTION('Axis2P3D XDirection',(0.,6.12323399574E-017,1.)) ;
#306=DIRECTION('Vector Direction',(0.,-1.,6.12323399517E-017)) ;
#313=DIRECTION('Vector Direction',(0.,-1.,0.)) ;
#320=DIRECTION('Vector Direction',(0.,0.258819045103,0.965925826289)) ;
#332=DIRECTION('Axis2P3D Direction',(0.,-6.12323399574E-017,-1.)) ;
#333=DIRECTION('Axis2P3D XDirection',(6.12323399574E-017,1.,-6.12323399574E-017)) ;
#337=DIRECTION('Vector Direction',(1.,-6.08341383356E-017,0.)) ;
#344=DIRECTION('Vector Direction',(0.,-1.,6.12323399517E-017)) ;
#356=DIRECTION('Axis2P3D Direction',(5.91458985689E-017,0.965925826289,0.258819045103)) ;
#357=DIRECTION('Axis2P3D XDirection',(-1.58480957572E-017,-0.258819045103,0.965925826289)) ;
#361=DIRECTION('Vector Direction',(1.,-1.21668276671E-016,0.)) ;
#370=DIRECTION('Vector Direction',(2.19676204274E-015,0.258819045103,-0.965925826289)) ;
#377=DIRECTION('Vector Direction',(1.,-1.21668276671E-016,0.)) ;
#384=DIRECTION('Vector Direction',(0.,-0.258819045103,0.965925826289)) ;
#396=DIRECTION('Vector Direction',(0.,-1.,0.)) ;
#403=DIRECTION('Vector Direction',(0.,0.,1.)) ;
#410=DIRECTION('Vector Direction',(0.,-1.,6.12323399517E-017)) ;
#422=DIRECTION('Vector Direction',(1.,-1.21668276671E-016,0.)) ;
#429=DIRECTION('Vector Direction',(0.,-1.,6.12323399517E-017)) ;
#441=DIRECTION('Axis2P3D Direction',(5.91458985689E-017,0.965925826289,-0.258819045103)) ;
#442=DIRECTION('Axis2P3D XDirection',(1.58480957572E-017,0.258819045103,0.965925826289)) ;
#446=DIRECTION('Vector Direction',(1.,-6.08341383356E-017,0.)) ;
#453=DIRECTION('Vector Direction',(2.19676204274E-015,-0.258819045103,-0.965925826289)) ;
#465=DIRECTION('Axis2P3D Direction',(-1.,6.12323399574E-017,-3.74939945665E-033)) ;
#466=DIRECTION('Axis2P3D XDirection',(0.,-6.12323399574E-017,-1.)) ;
#470=DIRECTION('Vector Direction',(0.,-1.,0.)) ;
#482=DIRECTION('Axis2P3D Direction',(-6.12323399574E-017,-1.,6.12323399574E-017)) ;
#483=DIRECTION('Axis2P3D XDirection',(0.,-6.12323399574E-017,-1.)) ;
#487=DIRECTION('Vector Direction',(1.,-1.21668276671E-016,0.)) ;
#494=DIRECTION('Vector Direction',(0.,0.,-1.)) ;
#506=DIRECTION('Vector Direction',(0.,-1.,0.)) ;
#518=DIRECTION('Axis2P3D Direction',(0.,-6.12323399574E-017,-1.)) ;
#519=DIRECTION('Axis2P3D XDirection',(6.12323399574E-017,1.,-6.12323399574E-017)) ;
#523=DIRECTION('Vector Direction',(1.,-5.55111512313E-017,0.)) ;
#528=DIRECTION('Vector Direction',(1.,-1.11022302463E-016,0.)) ;
#552=DIRECTION('Axis2P3D Direction',(-6.12323399574E-017,-1.,6.12323399574E-017)) ;
#553=DIRECTION('Axis2P3D XDirection',(0.,-6.12323399574E-017,-1.)) ;
#564=DIRECTION('Axis2P3D Direction',(-6.12323399574E-017,-1.,6.12323399574E-017)) ;
#565=DIRECTION('Axis2P3D XDirection',(0.,-6.12323399574E-017,-1.)) ;
#8=PRODUCT_RELATED_PRODUCT_CATEGORY('part',$,(#5)) ;
#7=PRODUCT_CATEGORY('part','specification') ;
#29=STYLED_ITEM(' ',(#28),#21) ;
#28=PRESENTATION_STYLE_ASSIGNMENT((#27)) ;
#27=SURFACE_STYLE_USAGE(.BOTH.,#26) ;
#26=SURFACE_SIDE_STYLE(' ',(#25)) ;
#25=SURFACE_STYLE_FILL_AREA(#24) ;
#24=FILL_AREA_STYLE(' ',(#23)) ;
#23=FILL_AREA_STYLE_COLOUR(' ',#22) ;
#38=VECTOR('Line Direction',#37,1.) ;
#47=VECTOR('Line Direction',#46,1.) ;
#54=VECTOR('Line Direction',#53,1.) ;
#61=VECTOR('Line Direction',#60,1.) ;
#68=VECTOR('Line Direction',#67,1.) ;
#75=VECTOR('Line Direction',#74,1.) ;
#82=VECTOR('Line Direction',#81,1.) ;
#89=VECTOR('Line Direction',#88,1.) ;
#110=VECTOR('Line Direction',#109,1.) ;
#119=VECTOR('Line Direction',#118,1.) ;
#126=VECTOR('Line Direction',#125,1.) ;
#133=VECTOR('Line Direction',#132,1.) ;
#140=VECTOR('Line Direction',#139,1.) ;
#147=VECTOR('Line Direction',#146,1.) ;
#154=VECTOR('Line Direction',#153,1.) ;
#161=VECTOR('Line Direction',#160,1.) ;
#182=VECTOR('Line Direction',#181,1.) ;
#187=VECTOR('Line Direction',#186,1.) ;
#204=VECTOR('Line Direction',#203,1.) ;
#221=VECTOR('Line Direction',#220,1.) ;
#238=VECTOR('Line Direction',#237,1.) ;
#250=VECTOR('Line Direction',#249,1.) ;
#267=VECTOR('Line Direction',#266,1.) ;
#276=VECTOR('Line Direction',#275,1.) ;
#283=VECTOR('Line Direction',#282,1.) ;
#290=VECTOR('Line Direction',#289,1.) ;
#307=VECTOR('Line Direction',#306,1.) ;
#314=VECTOR('Line Direction',#313,1.) ;
#321=VECTOR('Line Direction',#320,1.) ;
#338=VECTOR('Line Direction',#337,1.) ;
#345=VECTOR('Line Direction',#344,1.) ;
#362=VECTOR('Line Direction',#361,1.) ;
#371=VECTOR('Line Direction',#370,1.) ;
#378=VECTOR('Line Direction',#377,1.) ;
#385=VECTOR('Line Direction',#384,1.) ;
#397=VECTOR('Line Direction',#396,1.) ;
#404=VECTOR('Line Direction',#403,1.) ;
#411=VECTOR('Line Direction',#410,1.) ;
#423=VECTOR('Line Direction',#422,1.) ;
#430=VECTOR('Line Direction',#429,1.) ;
#447=VECTOR('Line Direction',#446,1.) ;
#454=VECTOR('Line Direction',#453,1.) ;
#471=VECTOR('Line Direction',#470,1.) ;
#488=VECTOR('Line Direction',#487,1.) ;
#495=VECTOR('Line Direction',#494,1.) ;
#507=VECTOR('Line Direction',#506,1.) ;
#524=VECTOR('Line Direction',#523,1.) ;
#529=VECTOR('Line Direction',#528,1.) ;
#15=UNCERTAINTY_MEASURE_WITH_UNIT(LENGTH_MEASURE(0.005),#12,'distance_accuracy_value','CONFUSED CURVE UNCERTAINTY') ;
#576=SHAPE_REPRESENTATION_RELATIONSHIP(' ',' ',#19,#575) ;
#93=ORIENTED_EDGE('',*,*,#44,.F.) ;
#94=ORIENTED_EDGE('',*,*,#51,.T.) ;
#95=ORIENTED_EDGE('',*,*,#58,.T.) ;
#96=ORIENTED_EDGE('',*,*,#65,.T.) ;
#97=ORIENTED_EDGE('',*,*,#72,.T.) ;
#98=ORIENTED_EDGE('',*,*,#79,.T.) ;
#99=ORIENTED_EDGE('',*,*,#86,.T.) ;
#100=ORIENTED_EDGE('',*,*,#91,.T.) ;
#165=ORIENTED_EDGE('',*,*,#116,.F.) ;
#166=ORIENTED_EDGE('',*,*,#123,.F.) ;
#167=ORIENTED_EDGE('',*,*,#130,.F.) ;
#168=ORIENTED_EDGE('',*,*,#137,.F.) ;
#169=ORIENTED_EDGE('',*,*,#144,.F.) ;
#170=ORIENTED_EDGE('',*,*,#151,.F.) ;
#171=ORIENTED_EDGE('',*,*,#158,.F.) ;
#172=ORIENTED_EDGE('',*,*,#163,.T.) ;
#191=ORIENTED_EDGE('',*,*,#184,.F.) ;
#192=ORIENTED_EDGE('',*,*,#151,.T.) ;
#193=ORIENTED_EDGE('',*,*,#189,.T.) ;
#194=ORIENTED_EDGE('',*,*,#58,.F.) ;
#208=ORIENTED_EDGE('',*,*,#189,.F.) ;
#209=ORIENTED_EDGE('',*,*,#144,.T.) ;
#210=ORIENTED_EDGE('',*,*,#206,.T.) ;
#211=ORIENTED_EDGE('',*,*,#65,.F.) ;
#225=ORIENTED_EDGE('',*,*,#206,.F.) ;
#226=ORIENTED_EDGE('',*,*,#137,.T.) ;
#227=ORIENTED_EDGE('',*,*,#223,.T.) ;
#228=ORIENTED_EDGE('',*,*,#72,.F.) ;
#242=ORIENTED_EDGE('',*,*,#223,.F.) ;
#243=ORIENTED_EDGE('',*,*,#130,.T.) ;
#244=ORIENTED_EDGE('',*,*,#240,.T.) ;
#245=ORIENTED_EDGE('',*,*,#79,.F.) ;
#254=ORIENTED_EDGE('',*,*,#240,.F.) ;
#255=ORIENTED_EDGE('',*,*,#123,.T.) ;
#256=ORIENTED_EDGE('',*,*,#252,.T.) ;
#257=ORIENTED_EDGE('',*,*,#86,.F.) ;
#294=ORIENTED_EDGE('',*,*,#273,.F.) ;
#295=ORIENTED_EDGE('',*,*,#280,.T.) ;
#296=ORIENTED_EDGE('',*,*,#287,.F.) ;
#297=ORIENTED_EDGE('',*,*,#292,.F.) ;
#325=ORIENTED_EDGE('',*,*,#311,.T.) ;
#326=ORIENTED_EDGE('',*,*,#273,.T.) ;
#327=ORIENTED_EDGE('',*,*,#318,.F.) ;
#328=ORIENTED_EDGE('',*,*,#323,.F.) ;
#349=ORIENTED_EDGE('',*,*,#311,.F.) ;
#350=ORIENTED_EDGE('',*,*,#342,.T.) ;
#351=ORIENTED_EDGE('',*,*,#347,.T.) ;
#352=ORIENTED_EDGE('',*,*,#280,.F.) ;
#389=ORIENTED_EDGE('',*,*,#368,.T.) ;
#390=ORIENTED_EDGE('',*,*,#375,.F.) ;
#391=ORIENTED_EDGE('',*,*,#382,.F.) ;
#392=ORIENTED_EDGE('',*,*,#387,.F.) ;
#415=ORIENTED_EDGE('',*,*,#387,.T.) ;
#416=ORIENTED_EDGE('',*,*,#401,.F.) ;
#417=ORIENTED_EDGE('',*,*,#408,.T.) ;
#418=ORIENTED_EDGE('',*,*,#413,.T.) ;
#434=ORIENTED_EDGE('',*,*,#413,.F.) ;
#435=ORIENTED_EDGE('',*,*,#427,.T.) ;
#436=ORIENTED_EDGE('',*,*,#432,.T.) ;
#437=ORIENTED_EDGE('',*,*,#368,.F.) ;
#458=ORIENTED_EDGE('',*,*,#323,.T.) ;
#459=ORIENTED_EDGE('',*,*,#451,.T.) ;
#460=ORIENTED_EDGE('',*,*,#456,.T.) ;
#461=ORIENTED_EDGE('',*,*,#342,.F.) ;
#475=ORIENTED_EDGE('',*,*,#473,.T.) ;
#476=ORIENTED_EDGE('',*,*,#287,.T.) ;
#477=ORIENTED_EDGE('',*,*,#347,.F.) ;
#478=ORIENTED_EDGE('',*,*,#456,.F.) ;
#499=ORIENTED_EDGE('',*,*,#492,.T.) ;
#500=ORIENTED_EDGE('',*,*,#497,.F.) ;
#501=ORIENTED_EDGE('',*,*,#427,.F.) ;
#502=ORIENTED_EDGE('',*,*,#408,.F.) ;
#511=ORIENTED_EDGE('',*,*,#375,.T.) ;
#512=ORIENTED_EDGE('',*,*,#432,.F.) ;
#513=ORIENTED_EDGE('',*,*,#497,.T.) ;
#514=ORIENTED_EDGE('',*,*,#509,.T.) ;
#533=ORIENTED_EDGE('',*,*,#526,.F.) ;
#534=ORIENTED_EDGE('',*,*,#163,.F.) ;
#535=ORIENTED_EDGE('',*,*,#531,.T.) ;
#536=ORIENTED_EDGE('',*,*,#44,.T.) ;
#539=ORIENTED_EDGE('',*,*,#382,.T.) ;
#540=ORIENTED_EDGE('',*,*,#509,.F.) ;
#541=ORIENTED_EDGE('',*,*,#492,.F.) ;
#542=ORIENTED_EDGE('',*,*,#401,.T.) ;
#545=ORIENTED_EDGE('',*,*,#318,.T.) ;
#546=ORIENTED_EDGE('',*,*,#292,.T.) ;
#547=ORIENTED_EDGE('',*,*,#473,.F.) ;
#548=ORIENTED_EDGE('',*,*,#451,.F.) ;
#557=ORIENTED_EDGE('',*,*,#531,.F.) ;
#558=ORIENTED_EDGE('',*,*,#158,.T.) ;
#559=ORIENTED_EDGE('',*,*,#184,.T.) ;
#560=ORIENTED_EDGE('',*,*,#51,.F.) ;
#569=ORIENTED_EDGE('',*,*,#252,.F.) ;
#570=ORIENTED_EDGE('',*,*,#116,.T.) ;
#571=ORIENTED_EDGE('',*,*,#526,.T.) ;
#572=ORIENTED_EDGE('',*,*,#91,.F.) ;
#543=FACE_BOUND('',#538,.T.) ;
#549=FACE_BOUND('',#544,.T.) ;
#30=CLOSED_SHELL('Closed Shell',(#102,#174,#196,#213,#230,#247,#259,#299,#330,#354,#394,#420,#439,#463,#480,#504,#516,#550,#562,#574)) ;
#575=ADVANCED_BREP_SHAPE_REPRESENTATION('NONE',(#21),#16) ;
#102=ADVANCED_FACE('S3D positioniert',(#101),#35,.T.) ;
#174=ADVANCED_FACE('S3D positioniert',(#173),#107,.F.) ;
#196=ADVANCED_FACE('S3D positioniert',(#195),#179,.F.) ;
#213=ADVANCED_FACE('S3D positioniert',(#212),#201,.T.) ;
#230=ADVANCED_FACE('S3D positioniert',(#229),#218,.F.) ;
#247=ADVANCED_FACE('S3D positioniert',(#246),#235,.T.) ;
#259=ADVANCED_FACE('S3D positioniert',(#258),#179,.F.) ;
#299=ADVANCED_FACE('S3D positioniert',(#298),#264,.T.) ;
#330=ADVANCED_FACE('S3D positioniert',(#329),#304,.F.) ;
#354=ADVANCED_FACE('S3D positioniert',(#353),#335,.T.) ;
#394=ADVANCED_FACE('S3D positioniert',(#393),#359,.F.) ;
#420=ADVANCED_FACE('S3D positioniert',(#419),#304,.F.) ;
#439=ADVANCED_FACE('S3D positioniert',(#438),#335,.T.) ;
#463=ADVANCED_FACE('S3D positioniert',(#462),#444,.T.) ;
#480=ADVANCED_FACE('S3D positioniert',(#479),#468,.F.) ;
#504=ADVANCED_FACE('S3D positioniert',(#503),#485,.F.) ;
#516=ADVANCED_FACE('S3D positioniert',(#515),#468,.F.) ;
#550=ADVANCED_FACE('S3D positioniert',(#537,#543,#549),#521,.T.) ;
#562=ADVANCED_FACE('S3D positioniert',(#561),#555,.F.) ;
#574=ADVANCED_FACE('S3D positioniert',(#573),#567,.T.) ;
#4=APPLICATION_PROTOCOL_DEFINITION('international standard','automotive_design',2001,#1) ;
#21=MANIFOLD_SOLID_BREP('S3D positioniert',#30) ;
#22=DRAUGHTING_PRE_DEFINED_COLOUR('white') ;
#44=EDGE_CURVE('',#41,#43,#39,.F.) ;
#51=EDGE_CURVE('',#41,#50,#48,.F.) ;
#58=EDGE_CURVE('',#50,#57,#55,.F.) ;
#65=EDGE_CURVE('',#57,#64,#62,.T.) ;
#72=EDGE_CURVE('',#64,#71,#69,.F.) ;
#79=EDGE_CURVE('',#71,#78,#76,.T.) ;
#86=EDGE_CURVE('',#78,#85,#83,.F.) ;
#91=EDGE_CURVE('',#85,#43,#90,.T.) ;
#116=EDGE_CURVE('',#113,#115,#111,.T.) ;
#123=EDGE_CURVE('',#122,#113,#120,.F.) ;
#130=EDGE_CURVE('',#129,#122,#127,.T.) ;
#137=EDGE_CURVE('',#136,#129,#134,.F.) ;
#144=EDGE_CURVE('',#143,#136,#141,.T.) ;
#151=EDGE_CURVE('',#150,#143,#148,.F.) ;
#158=EDGE_CURVE('',#157,#150,#155,.F.) ;
#163=EDGE_CURVE('',#157,#115,#162,.T.) ;
#184=EDGE_CURVE('',#150,#50,#183,.T.) ;
#189=EDGE_CURVE('',#143,#57,#188,.T.) ;
#206=EDGE_CURVE('',#136,#64,#205,.T.) ;
#223=EDGE_CURVE('',#129,#71,#222,.T.) ;
#240=EDGE_CURVE('',#122,#78,#239,.T.) ;
#252=EDGE_CURVE('',#113,#85,#251,.T.) ;
#273=EDGE_CURVE('',#270,#272,#268,.T.) ;
#280=EDGE_CURVE('',#270,#279,#277,.T.) ;
#287=EDGE_CURVE('',#286,#279,#284,.T.) ;
#292=EDGE_CURVE('',#272,#286,#291,.T.) ;
#311=EDGE_CURVE('',#310,#270,#308,.T.) ;
#318=EDGE_CURVE('',#317,#272,#315,.T.) ;
#323=EDGE_CURVE('',#310,#317,#322,.T.) ;
#342=EDGE_CURVE('',#310,#341,#339,.T.) ;
#347=EDGE_CURVE('',#341,#279,#346,.T.) ;
#368=EDGE_CURVE('',#365,#367,#363,.T.) ;
#375=EDGE_CURVE('',#374,#367,#372,.T.) ;
#382=EDGE_CURVE('',#381,#374,#379,.T.) ;
#387=EDGE_CURVE('',#365,#381,#386,.T.) ;
#401=EDGE_CURVE('',#400,#381,#398,.T.) ;
#408=EDGE_CURVE('',#400,#407,#405,.F.) ;
#413=EDGE_CURVE('',#407,#365,#412,.T.) ;
#427=EDGE_CURVE('',#407,#426,#424,.T.) ;
#432=EDGE_CURVE('',#426,#367,#431,.T.) ;
#451=EDGE_CURVE('',#317,#450,#448,.T.) ;
#456=EDGE_CURVE('',#450,#341,#455,.T.) ;
#473=EDGE_CURVE('',#450,#286,#472,.T.) ;
#492=EDGE_CURVE('',#400,#491,#489,.T.) ;
#497=EDGE_CURVE('',#426,#491,#496,.F.) ;
#509=EDGE_CURVE('',#491,#374,#508,.T.) ;
#526=EDGE_CURVE('',#115,#43,#525,.T.) ;
#531=EDGE_CURVE('',#157,#41,#530,.T.) ;
#92=EDGE_LOOP('',(#93,#94,#95,#96,#97,#98,#99,#100)) ;
#164=EDGE_LOOP('',(#165,#166,#167,#168,#169,#170,#171,#172)) ;
#190=EDGE_LOOP('',(#191,#192,#193,#194)) ;
#207=EDGE_LOOP('',(#208,#209,#210,#211)) ;
#224=EDGE_LOOP('',(#225,#226,#227,#228)) ;
#241=EDGE_LOOP('',(#242,#243,#244,#245)) ;
#253=EDGE_LOOP('',(#254,#255,#256,#257)) ;
#293=EDGE_LOOP('',(#294,#295,#296,#297)) ;
#324=EDGE_LOOP('',(#325,#326,#327,#328)) ;
#348=EDGE_LOOP('',(#349,#350,#351,#352)) ;
#388=EDGE_LOOP('',(#389,#390,#391,#392)) ;
#414=EDGE_LOOP('',(#415,#416,#417,#418)) ;
#433=EDGE_LOOP('',(#434,#435,#436,#437)) ;
#457=EDGE_LOOP('',(#458,#459,#460,#461)) ;
#474=EDGE_LOOP('',(#475,#476,#477,#478)) ;
#498=EDGE_LOOP('',(#499,#500,#501,#502)) ;
#510=EDGE_LOOP('',(#511,#512,#513,#514)) ;
#532=EDGE_LOOP('',(#533,#534,#535,#536)) ;
#538=EDGE_LOOP('',(#539,#540,#541,#542)) ;
#544=EDGE_LOOP('',(#545,#546,#547,#548)) ;
#556=EDGE_LOOP('',(#557,#558,#559,#560)) ;
#568=EDGE_LOOP('',(#569,#570,#571,#572)) ;
#101=FACE_OUTER_BOUND('',#92,.T.) ;
#173=FACE_OUTER_BOUND('',#164,.T.) ;
#195=FACE_OUTER_BOUND('',#190,.T.) ;
#212=FACE_OUTER_BOUND('',#207,.T.) ;
#229=FACE_OUTER_BOUND('',#224,.T.) ;
#246=FACE_OUTER_BOUND('',#241,.T.) ;
#258=FACE_OUTER_BOUND('',#253,.T.) ;
#298=FACE_OUTER_BOUND('',#293,.T.) ;
#329=FACE_OUTER_BOUND('',#324,.T.) ;
#353=FACE_OUTER_BOUND('',#348,.T.) ;
#393=FACE_OUTER_BOUND('',#388,.T.) ;
#419=FACE_OUTER_BOUND('',#414,.T.) ;
#438=FACE_OUTER_BOUND('',#433,.T.) ;
#462=FACE_OUTER_BOUND('',#457,.T.) ;
#479=FACE_OUTER_BOUND('',#474,.T.) ;
#503=FACE_OUTER_BOUND('',#498,.T.) ;
#515=FACE_OUTER_BOUND('',#510,.T.) ;
#537=FACE_OUTER_BOUND('',#532,.T.) ;
#561=FACE_OUTER_BOUND('',#556,.T.) ;
#573=FACE_OUTER_BOUND('',#568,.T.) ;
#39=LINE('Line',#36,#38) ;
#48=LINE('Line',#45,#47) ;
#55=LINE('Line',#52,#54) ;
#62=LINE('Line',#59,#61) ;
#69=LINE('Line',#66,#68) ;
#76=LINE('Line',#73,#75) ;
#83=LINE('Line',#80,#82) ;
#90=LINE('Line',#87,#89) ;
#111=LINE('Line',#108,#110) ;
#120=LINE('Line',#117,#119) ;
#127=LINE('Line',#124,#126) ;
#134=LINE('Line',#131,#133) ;
#141=LINE('Line',#138,#140) ;
#148=LINE('Line',#145,#147) ;
#155=LINE('Line',#152,#154) ;
#162=LINE('Line',#159,#161) ;
#183=LINE('Line',#180,#182) ;
#188=LINE('Line',#185,#187) ;
#205=LINE('Line',#202,#204) ;
#222=LINE('Line',#219,#221) ;
#239=LINE('Line',#236,#238) ;
#251=LINE('Line',#248,#250) ;
#268=LINE('Line',#265,#267) ;
#277=LINE('Line',#274,#276) ;
#284=LINE('Line',#281,#283) ;
#291=LINE('Line',#288,#290) ;
#308=LINE('Line',#305,#307) ;
#315=LINE('Line',#312,#314) ;
#322=LINE('Line',#319,#321) ;
#339=LINE('Line',#336,#338) ;
#346=LINE('Line',#343,#345) ;
#363=LINE('Line',#360,#362) ;
#372=LINE('Line',#369,#371) ;
#379=LINE('Line',#376,#378) ;
#386=LINE('Line',#383,#385) ;
#398=LINE('Line',#395,#397) ;
#405=LINE('Line',#402,#404) ;
#412=LINE('Line',#409,#411) ;
#424=LINE('Line',#421,#423) ;
#431=LINE('Line',#428,#430) ;
#448=LINE('Line',#445,#447) ;
#455=LINE('Line',#452,#454) ;
#472=LINE('Line',#469,#471) ;
#489=LINE('Line',#486,#488) ;
#496=LINE('Line',#493,#495) ;
#508=LINE('Line',#505,#507) ;
#525=LINE('Line',#522,#524) ;
#530=LINE('Line',#527,#529) ;
#35=PLANE('',#34) ;
#107=PLANE('',#106) ;
#179=PLANE('',#178) ;
#201=PLANE('',#200) ;
#218=PLANE('',#217) ;
#235=PLANE('',#234) ;
#264=PLANE('',#263) ;
#304=PLANE('',#303) ;
#335=PLANE('',#334) ;
#359=PLANE('',#358) ;
#444=PLANE('',#443) ;
#468=PLANE('',#467) ;
#485=PLANE('',#484) ;
#521=PLANE('',#520) ;
#555=PLANE('',#554) ;
#567=PLANE('',#566) ;
#9=PRODUCT_CATEGORY_RELATIONSHIP(' ',' ',#7,#8) ;
#6=PRODUCT_DEFINITION_FORMATION_WITH_SPECIFIED_SOURCE('',' ',#5,.NOT_KNOWN.) ;
#20=SHAPE_DEFINITION_REPRESENTATION(#11,#19) ;
#41=VERTEX_POINT('',#40) ;
#43=VERTEX_POINT('',#42) ;
#50=VERTEX_POINT('',#49) ;
#57=VERTEX_POINT('',#56) ;
#64=VERTEX_POINT('',#63) ;
#71=VERTEX_POINT('',#70) ;
#78=VERTEX_POINT('',#77) ;
#85=VERTEX_POINT('',#84) ;
#113=VERTEX_POINT('',#112) ;
#115=VERTEX_POINT('',#114) ;
#122=VERTEX_POINT('',#121) ;
#129=VERTEX_POINT('',#128) ;
#136=VERTEX_POINT('',#135) ;
#143=VERTEX_POINT('',#142) ;
#150=VERTEX_POINT('',#149) ;
#157=VERTEX_POINT('',#156) ;
#270=VERTEX_POINT('',#269) ;
#272=VERTEX_POINT('',#271) ;
#279=VERTEX_POINT('',#278) ;
#286=VERTEX_POINT('',#285) ;
#310=VERTEX_POINT('',#309) ;
#317=VERTEX_POINT('',#316) ;
#341=VERTEX_POINT('',#340) ;
#365=VERTEX_POINT('',#364) ;
#367=VERTEX_POINT('',#366) ;
#374=VERTEX_POINT('',#373) ;
#381=VERTEX_POINT('',#380) ;
#400=VERTEX_POINT('',#399) ;
#407=VERTEX_POINT('',#406) ;
#426=VERTEX_POINT('',#425) ;
#450=VERTEX_POINT('',#449) ;
#491=VERTEX_POINT('',#490) ;
#12=(LENGTH_UNIT()NAMED_UNIT(*)SI_UNIT(.MILLI.,.METRE.)) ;
#13=(NAMED_UNIT(*)PLANE_ANGLE_UNIT()SI_UNIT($,.RADIAN.)) ;
#14=(NAMED_UNIT(*)SI_UNIT($,.STERADIAN.)SOLID_ANGLE_UNIT()) ;
#16=(GEOMETRIC_REPRESENTATION_CONTEXT(3)GLOBAL_UNCERTAINTY_ASSIGNED_CONTEXT((#15))GLOBAL_UNIT_ASSIGNED_CONTEXT((#12,#13,#14))REPRESENTATION_CONTEXT(' ',' ')) ;
ENDSEC;
END-ISO-10303-21;
