ISO-10303-21;
HEADER;
FILE_DESCRIPTION(('CATIA V5 STEP Exchange','CAx-IF Rec.Pracs.--- Model Styling and Organization---1.2---2011-12-15'),'2;1');

FILE_NAME ('D1459006_0_1913320000_1913320000.stp','2017-10-10T08:54:24+00:00',('none'),('Weidmueller'),'CATIA Version 5-6 Release 2014','CATIA V5 STEP AP214','none');

FILE_SCHEMA(('AUTOMOTIVE_DESIGN { 1 0 10303 214 1 1 1 1 }'));

ENDSEC;
DATA;
#5=PRODUCT('1913320000_GWDR_M12-NP','','',(#2)) ;
#2=PRODUCT_CONTEXT(' ',#1,'mechanical') ;
#1=APPLICATION_CONTEXT('automotive design') ;
#10=PRODUCT_DEFINITION('',' ',#6,#3) ;
#3=PRODUCT_DEFINITION_CONTEXT('part definition',#1,' ') ;
#11=PRODUCT_DEFINITION_SHAPE(' ',' ',#10) ;
#197=MECHANICAL_DESIGN_GEOMETRIC_PRESENTATION_REPRESENTATION(' ',(#29),#16) ;
#19=SHAPE_REPRESENTATION(' ',(#18),#16) ;
#18=AXIS2_PLACEMENT_3D(' ',#17,$,$) ;
#34=AXIS2_PLACEMENT_3D('Cylinder Axis2P3D',#31,#32,#33) ;
#38=AXIS2_PLACEMENT_3D('Circle Axis2P3D',#36,#37,$) ;
#86=AXIS2_PLACEMENT_3D('Plane Axis2P3D',#83,#84,#85) ;
#90=AXIS2_PLACEMENT_3D('Circle Axis2P3D',#88,#89,$) ;
#99=AXIS2_PLACEMENT_3D('Circle Axis2P3D',#97,#98,$) ;
#108=AXIS2_PLACEMENT_3D('Circle Axis2P3D',#106,#107,$) ;
#119=AXIS2_PLACEMENT_3D('Cylinder Axis2P3D',#116,#117,#118) ;
#123=AXIS2_PLACEMENT_3D('Circle Axis2P3D',#121,#122,$) ;
#136=AXIS2_PLACEMENT_3D('Plane Axis2P3D',#133,#134,#135) ;
#140=AXIS2_PLACEMENT_3D('Circle Axis2P3D',#138,#139,$) ;
#149=AXIS2_PLACEMENT_3D('Circle Axis2P3D',#147,#148,$) ;
#164=AXIS2_PLACEMENT_3D('Cylinder Axis2P3D',#161,#162,#163) ;
#186=AXIS2_PLACEMENT_3D('Cylinder Axis2P3D',#183,#184,#185) ;
#17=CARTESIAN_POINT(' ',(0.,0.,0.)) ;
#31=CARTESIAN_POINT('Axis2P3D Location',(9.,9.,1.2)) ;
#36=CARTESIAN_POINT('Axis2P3D Location',(9.,9.,1.2)) ;
#40=CARTESIAN_POINT('Vertex',(3.,9.,1.2)) ;
#42=CARTESIAN_POINT('Vertex',(15.,9.,1.2)) ;
#45=CARTESIAN_POINT('Line Origine',(15.,9.,1.19999999925)) ;
#49=CARTESIAN_POINT('Vertex',(15.,9.,0.)) ;
#53=CARTESIAN_POINT('Control Point',(3.,9.,7.45058015283E-010)) ;
#54=CARTESIAN_POINT('Control Point',(3.,8.05752220392,7.07805114519E-010)) ;
#55=CARTESIAN_POINT('Control Point',(3.18505508252,7.11504440785,6.70552213755E-010)) ;
#56=CARTESIAN_POINT('Control Point',(3.55534813518,6.22107789807,6.3329925748E-010)) ;
#57=CARTESIAN_POINT('Control Point',(4.62650560914,4.62650560914,5.58793455951E-010)) ;
#58=CARTESIAN_POINT('Control Point',(6.22107789807,3.55534813518,4.84287654423E-010)) ;
#59=CARTESIAN_POINT('Control Point',(7.11504440785,3.18505508252,4.47034698148E-010)) ;
#60=CARTESIAN_POINT('Control Point',(9.,2.81494491748,3.72528896619E-010)) ;
#61=CARTESIAN_POINT('Control Point',(10.8849555922,3.18505508252,2.98023095091E-010)) ;
#62=CARTESIAN_POINT('Control Point',(11.7789221019,3.55534813518,2.60770138816E-010)) ;
#63=CARTESIAN_POINT('Control Point',(13.3734943909,4.62650560914,1.86264337287E-010)) ;
#64=CARTESIAN_POINT('Control Point',(14.4446518648,6.22107789807,1.11758535759E-010)) ;
#65=CARTESIAN_POINT('Control Point',(14.8149449175,7.11504440785,7.45055794837E-011)) ;
#66=CARTESIAN_POINT('Control Point',(15.,8.05752220392,3.72526787196E-011)) ;
#67=CARTESIAN_POINT('Control Point',(15.,9.,-2.22044604925E-016)) ;
#68=CARTESIAN_POINT('Vertex',(3.,9.,0.)) ;
#71=CARTESIAN_POINT('Line Origine',(3.,9.,1.19999999925)) ;
#83=CARTESIAN_POINT('Axis2P3D Location',(9.,9.,1.2)) ;
#88=CARTESIAN_POINT('Axis2P3D Location',(9.,9.,1.2)) ;
#92=CARTESIAN_POINT('Vertex',(0.,9.,1.2)) ;
#94=CARTESIAN_POINT('Vertex',(18.,9.,1.2)) ;
#97=CARTESIAN_POINT('Axis2P3D Location',(9.,9.,1.2)) ;
#106=CARTESIAN_POINT('Axis2P3D Location',(9.,9.,1.2)) ;
#116=CARTESIAN_POINT('Axis2P3D Location',(9.,9.,1.2)) ;
#121=CARTESIAN_POINT('Axis2P3D Location',(9.,9.,7.45058015283E-010)) ;
#133=CARTESIAN_POINT('Axis2P3D Location',(9.,9.,0.)) ;
#138=CARTESIAN_POINT('Axis2P3D Location',(9.,9.,0.)) ;
#142=CARTESIAN_POINT('Vertex',(0.,9.,7.45058015283E-010)) ;
#144=CARTESIAN_POINT('Vertex',(18.,9.,7.45058015283E-010)) ;
#147=CARTESIAN_POINT('Axis2P3D Location',(9.,9.,0.)) ;
#161=CARTESIAN_POINT('Axis2P3D Location',(9.,9.,1.2)) ;
#166=CARTESIAN_POINT('Line Origine',(18.,9.,1.19999999925)) ;
#171=CARTESIAN_POINT('Line Origine',(0.,9.,1.19999999925)) ;
#183=CARTESIAN_POINT('Axis2P3D Location',(9.,9.,1.2)) ;
#32=DIRECTION('Axis2P3D Direction',(-0.,0.,-1.)) ;
#33=DIRECTION('Axis2P3D XDirection',(1.,1.22464679915E-016,-0.)) ;
#37=DIRECTION('Axis2P3D Direction',(-0.,0.,-1.)) ;
#46=DIRECTION('Vector Direction',(0.,0.,-1.)) ;
#72=DIRECTION('Vector Direction',(0.,0.,-1.)) ;
#84=DIRECTION('Axis2P3D Direction',(0.,0.,1.)) ;
#85=DIRECTION('Axis2P3D XDirection',(1.,0.,-0.)) ;
#89=DIRECTION('Axis2P3D Direction',(0.,0.,1.)) ;
#98=DIRECTION('Axis2P3D Direction',(0.,0.,1.)) ;
#107=DIRECTION('Axis2P3D Direction',(0.,0.,1.)) ;
#117=DIRECTION('Axis2P3D Direction',(-0.,0.,-1.)) ;
#118=DIRECTION('Axis2P3D XDirection',(-1.,0.,0.)) ;
#122=DIRECTION('Axis2P3D Direction',(-0.,0.,-1.)) ;
#134=DIRECTION('Axis2P3D Direction',(0.,0.,1.)) ;
#135=DIRECTION('Axis2P3D XDirection',(1.,0.,-0.)) ;
#139=DIRECTION('Axis2P3D Direction',(0.,0.,1.)) ;
#148=DIRECTION('Axis2P3D Direction',(0.,0.,1.)) ;
#162=DIRECTION('Axis2P3D Direction',(-0.,0.,-1.)) ;
#163=DIRECTION('Axis2P3D XDirection',(1.,1.22464679915E-016,-0.)) ;
#167=DIRECTION('Vector Direction',(0.,0.,-1.)) ;
#172=DIRECTION('Vector Direction',(0.,0.,-1.)) ;
#184=DIRECTION('Axis2P3D Direction',(-0.,0.,-1.)) ;
#185=DIRECTION('Axis2P3D XDirection',(-1.,0.,0.)) ;
#8=PRODUCT_RELATED_PRODUCT_CATEGORY('part',$,(#5)) ;
#7=PRODUCT_CATEGORY('part','specification') ;
#29=STYLED_ITEM(' ',(#28),#21) ;
#28=PRESENTATION_STYLE_ASSIGNMENT((#27)) ;
#27=SURFACE_STYLE_USAGE(.BOTH.,#26) ;
#26=SURFACE_SIDE_STYLE(' ',(#25)) ;
#25=SURFACE_STYLE_FILL_AREA(#24) ;
#24=FILL_AREA_STYLE(' ',(#23)) ;
#23=FILL_AREA_STYLE_COLOUR(' ',#22) ;
#47=VECTOR('Line Direction',#46,1.) ;
#73=VECTOR('Line Direction',#72,1.) ;
#168=VECTOR('Line Direction',#167,1.) ;
#173=VECTOR('Line Direction',#172,1.) ;
#15=UNCERTAINTY_MEASURE_WITH_UNIT(LENGTH_MEASURE(0.005),#12,'distance_accuracy_value','CONFUSED CURVE UNCERTAINTY') ;
#196=SHAPE_REPRESENTATION_RELATIONSHIP(' ',' ',#19,#195) ;
#77=ORIENTED_EDGE('',*,*,#44,.T.) ;
#78=ORIENTED_EDGE('',*,*,#51,.T.) ;
#79=ORIENTED_EDGE('',*,*,#70,.F.) ;
#80=ORIENTED_EDGE('',*,*,#75,.F.) ;
#103=ORIENTED_EDGE('',*,*,#96,.T.) ;
#104=ORIENTED_EDGE('',*,*,#101,.T.) ;
#112=ORIENTED_EDGE('',*,*,#44,.F.) ;
#113=ORIENTED_EDGE('',*,*,#110,.F.) ;
#127=ORIENTED_EDGE('',*,*,#51,.F.) ;
#128=ORIENTED_EDGE('',*,*,#110,.T.) ;
#129=ORIENTED_EDGE('',*,*,#75,.T.) ;
#130=ORIENTED_EDGE('',*,*,#125,.F.) ;
#153=ORIENTED_EDGE('',*,*,#146,.F.) ;
#154=ORIENTED_EDGE('',*,*,#151,.F.) ;
#157=ORIENTED_EDGE('',*,*,#70,.T.) ;
#158=ORIENTED_EDGE('',*,*,#125,.T.) ;
#177=ORIENTED_EDGE('',*,*,#170,.F.) ;
#178=ORIENTED_EDGE('',*,*,#96,.F.) ;
#179=ORIENTED_EDGE('',*,*,#175,.T.) ;
#180=ORIENTED_EDGE('',*,*,#146,.T.) ;
#189=ORIENTED_EDGE('',*,*,#101,.F.) ;
#190=ORIENTED_EDGE('',*,*,#170,.T.) ;
#191=ORIENTED_EDGE('',*,*,#151,.T.) ;
#192=ORIENTED_EDGE('',*,*,#175,.F.) ;
#114=FACE_BOUND('',#111,.T.) ;
#159=FACE_BOUND('',#156,.T.) ;
#30=CLOSED_SHELL('Closed Shell',(#82,#115,#132,#160,#182,#194)) ;
#195=ADVANCED_BREP_SHAPE_REPRESENTATION('NONE',(#21),#16) ;
#82=ADVANCED_FACE('Aufsatz-Linear austragen1',(#81),#35,.F.) ;
#115=ADVANCED_FACE('Aufsatz-Linear austragen1',(#105,#114),#87,.T.) ;
#132=ADVANCED_FACE('Aufsatz-Linear austragen1',(#131),#120,.F.) ;
#160=ADVANCED_FACE('Aufsatz-Linear austragen1',(#155,#159),#137,.F.) ;
#182=ADVANCED_FACE('Aufsatz-Linear austragen1',(#181),#165,.T.) ;
#194=ADVANCED_FACE('Aufsatz-Linear austragen1',(#193),#187,.T.) ;
#4=APPLICATION_PROTOCOL_DEFINITION('international standard','automotive_design',2001,#1) ;
#52=B_SPLINE_CURVE_WITH_KNOTS('',5,(#53,#54,#55,#56,#57,#58,#59,#60,#61,#62,#63,#64,#65,#66,#67),.UNSPECIFIED.,.F.,.U.,(6,3,3,3,6),(-9.42477796077,-4.71238898038,8.881784197E-016,4.71238898038,9.42477796077),.UNSPECIFIED.) ;
#21=MANIFOLD_SOLID_BREP('Aufsatz-Linear austragen1',#30) ;
#39=CIRCLE('generated circle',#38,6.) ;
#91=CIRCLE('generated circle',#90,9.) ;
#100=CIRCLE('generated circle',#99,9.) ;
#109=CIRCLE('generated circle',#108,6.) ;
#124=CIRCLE('generated circle',#123,6.) ;
#141=CIRCLE('generated circle',#140,9.) ;
#150=CIRCLE('generated circle',#149,9.) ;
#22=COLOUR_RGB('Colour',0.262745098039,0.235294117647,0.258823529412) ;
#35=CYLINDRICAL_SURFACE('generated cylinder',#34,6.) ;
#120=CYLINDRICAL_SURFACE('generated cylinder',#119,6.) ;
#165=CYLINDRICAL_SURFACE('generated cylinder',#164,9.) ;
#187=CYLINDRICAL_SURFACE('generated cylinder',#186,9.) ;
#44=EDGE_CURVE('',#41,#43,#39,.F.) ;
#51=EDGE_CURVE('',#43,#50,#48,.T.) ;
#70=EDGE_CURVE('',#69,#50,#52,.T.) ;
#75=EDGE_CURVE('',#41,#69,#74,.T.) ;
#96=EDGE_CURVE('',#93,#95,#91,.T.) ;
#101=EDGE_CURVE('',#95,#93,#100,.T.) ;
#110=EDGE_CURVE('',#43,#41,#109,.T.) ;
#125=EDGE_CURVE('',#50,#69,#124,.F.) ;
#146=EDGE_CURVE('',#143,#145,#141,.T.) ;
#151=EDGE_CURVE('',#145,#143,#150,.T.) ;
#170=EDGE_CURVE('',#95,#145,#169,.T.) ;
#175=EDGE_CURVE('',#93,#143,#174,.T.) ;
#76=EDGE_LOOP('',(#77,#78,#79,#80)) ;
#102=EDGE_LOOP('',(#103,#104)) ;
#111=EDGE_LOOP('',(#112,#113)) ;
#126=EDGE_LOOP('',(#127,#128,#129,#130)) ;
#152=EDGE_LOOP('',(#153,#154)) ;
#156=EDGE_LOOP('',(#157,#158)) ;
#176=EDGE_LOOP('',(#177,#178,#179,#180)) ;
#188=EDGE_LOOP('',(#189,#190,#191,#192)) ;
#81=FACE_OUTER_BOUND('',#76,.T.) ;
#105=FACE_OUTER_BOUND('',#102,.T.) ;
#131=FACE_OUTER_BOUND('',#126,.T.) ;
#155=FACE_OUTER_BOUND('',#152,.T.) ;
#181=FACE_OUTER_BOUND('',#176,.T.) ;
#193=FACE_OUTER_BOUND('',#188,.T.) ;
#48=LINE('Line',#45,#47) ;
#74=LINE('Line',#71,#73) ;
#169=LINE('Line',#166,#168) ;
#174=LINE('Line',#171,#173) ;
#87=PLANE('',#86) ;
#137=PLANE('',#136) ;
#9=PRODUCT_CATEGORY_RELATIONSHIP(' ',' ',#7,#8) ;
#6=PRODUCT_DEFINITION_FORMATION_WITH_SPECIFIED_SOURCE('',' ',#5,.NOT_KNOWN.) ;
#20=SHAPE_DEFINITION_REPRESENTATION(#11,#19) ;
#41=VERTEX_POINT('',#40) ;
#43=VERTEX_POINT('',#42) ;
#50=VERTEX_POINT('',#49) ;
#69=VERTEX_POINT('',#68) ;
#93=VERTEX_POINT('',#92) ;
#95=VERTEX_POINT('',#94) ;
#143=VERTEX_POINT('',#142) ;
#145=VERTEX_POINT('',#144) ;
#12=(LENGTH_UNIT()NAMED_UNIT(*)SI_UNIT(.MILLI.,.METRE.)) ;
#13=(NAMED_UNIT(*)PLANE_ANGLE_UNIT()SI_UNIT($,.RADIAN.)) ;
#14=(NAMED_UNIT(*)SI_UNIT($,.STERADIAN.)SOLID_ANGLE_UNIT()) ;
#16=(GEOMETRIC_REPRESENTATION_CONTEXT(3)GLOBAL_UNCERTAINTY_ASSIGNED_CONTEXT((#15))GLOBAL_UNIT_ASSIGNED_CONTEXT((#12,#13,#14))REPRESENTATION_CONTEXT(' ',' ')) ;
ENDSEC;
END-ISO-10303-21;
